ISO-10303-21;
HEADER;
FILE_DESCRIPTION(('Creo Elements/Direct Modeling STEP Export'),'2;1');
FILE_NAME(
'//KR-CAD2/PhoenixTemp/karl.letzgus/Konvertierung/33.0175.1_Winkelplatte
-MMS-33_3mm-chem-vernickelt.stp','2022-03-18T13:57:37',(''),(''),
'PTC Creo Elements/Direct Modeling STEP processor for AP214 (Solid Model
)',
'PTC Creo Elements/Direct Modeling 19.0C  15-Aug-2015 (C) Parametric Tec
hnology GmbH','');
FILE_SCHEMA(('AUTOMOTIVE_DESIGN { 1 0 10303 214 1 1 1 1 }'));
ENDSEC;
DATA;
#10=CARTESIAN_POINT('',(0.,0.,0.));
#20=DIRECTION('',(0.,0.,1.));
#30=DIRECTION('',(1.,0.,0.));
#40=AXIS2_PLACEMENT_3D('',#10,#20,#30);
#50=PLANE('',#40);
#60=CARTESIAN_POINT('',(64.,14.,0.));
#70=DIRECTION('',(0.,0.,1.));
#80=DIRECTION('',(1.,0.,0.));
#90=AXIS2_PLACEMENT_3D('',#60,#70,#80);
#100=CIRCLE('',#90,3.25);
#110=CARTESIAN_POINT('',(67.25,14.,0.));
#120=VERTEX_POINT('',#110);
#130=CARTESIAN_POINT('',(60.75,14.,0.));
#140=VERTEX_POINT('',#130);
#150=EDGE_CURVE('',#120,#140,#100,.T.);
#160=ORIENTED_EDGE('',*,*,#150,.F.);
#170=EDGE_CURVE('',#140,#120,#100,.T.);
#180=ORIENTED_EDGE('',*,*,#170,.F.);
#190=EDGE_LOOP('',(#180,#160));
#200=FACE_BOUND('',#190,.T.);
#210=CARTESIAN_POINT('',(39.,14.,0.));
#220=DIRECTION('',(0.,0.,1.));
#230=DIRECTION('',(1.,0.,0.));
#240=AXIS2_PLACEMENT_3D('',#210,#220,#230);
#250=CIRCLE('',#240,3.25);
#260=CARTESIAN_POINT('',(42.25,14.,0.));
#270=VERTEX_POINT('',#260);
#280=CARTESIAN_POINT('',(35.75,14.,0.));
#290=VERTEX_POINT('',#280);
#300=EDGE_CURVE('',#270,#290,#250,.T.);
#310=ORIENTED_EDGE('',*,*,#300,.F.);
#320=EDGE_CURVE('',#290,#270,#250,.T.);
#330=ORIENTED_EDGE('',*,*,#320,.F.);
#340=EDGE_LOOP('',(#330,#310));
#350=FACE_BOUND('',#340,.T.);
#360=CARTESIAN_POINT('',(14.,14.,0.));
#370=DIRECTION('',(0.,0.,1.));
#380=DIRECTION('',(1.,0.,0.));
#390=AXIS2_PLACEMENT_3D('',#360,#370,#380);
#400=CIRCLE('',#390,3.25);
#410=CARTESIAN_POINT('',(17.25,14.,0.));
#420=VERTEX_POINT('',#410);
#430=CARTESIAN_POINT('',(10.75,14.,0.));
#440=VERTEX_POINT('',#430);
#450=EDGE_CURVE('',#420,#440,#400,.T.);
#460=ORIENTED_EDGE('',*,*,#450,.F.);
#470=EDGE_CURVE('',#440,#420,#400,.T.);
#480=ORIENTED_EDGE('',*,*,#470,.F.);
#490=EDGE_LOOP('',(#480,#460));
#500=FACE_BOUND('',#490,.T.);
#510=CARTESIAN_POINT('',(14.,39.,0.));
#520=DIRECTION('',(0.,0.,1.));
#530=DIRECTION('',(1.,0.,0.));
#540=AXIS2_PLACEMENT_3D('',#510,#520,#530);
#550=CIRCLE('',#540,3.25);
#560=CARTESIAN_POINT('',(17.25,39.,0.));
#570=VERTEX_POINT('',#560);
#580=CARTESIAN_POINT('',(10.75,39.,0.));
#590=VERTEX_POINT('',#580);
#600=EDGE_CURVE('',#570,#590,#550,.T.);
#610=ORIENTED_EDGE('',*,*,#600,.F.);
#620=EDGE_CURVE('',#590,#570,#550,.T.);
#630=ORIENTED_EDGE('',*,*,#620,.F.);
#640=EDGE_LOOP('',(#630,#610));
#650=FACE_BOUND('',#640,.T.);
#660=CARTESIAN_POINT('',(14.,64.,0.));
#670=DIRECTION('',(0.,0.,1.));
#680=DIRECTION('',(1.,0.,0.));
#690=AXIS2_PLACEMENT_3D('',#660,#670,#680);
#700=CIRCLE('',#690,3.25);
#710=CARTESIAN_POINT('',(17.25,64.,0.));
#720=VERTEX_POINT('',#710);
#730=CARTESIAN_POINT('',(10.75,64.,0.));
#740=VERTEX_POINT('',#730);
#750=EDGE_CURVE('',#720,#740,#700,.T.);
#760=ORIENTED_EDGE('',*,*,#750,.F.);
#770=EDGE_CURVE('',#740,#720,#700,.T.);
#780=ORIENTED_EDGE('',*,*,#770,.F.);
#790=EDGE_LOOP('',(#780,#760));
#800=FACE_BOUND('',#790,.T.);
#810=CARTESIAN_POINT('',(77.,25.,0.));
#820=DIRECTION('',(0.,0.,-1.));
#830=DIRECTION('',(-1.,0.,0.));
#840=AXIS2_PLACEMENT_3D('',#810,#820,#830);
#850=CIRCLE('',#840,3.);
#860=CARTESIAN_POINT('',(77.,28.,0.));
#870=VERTEX_POINT('',#860);
#880=CARTESIAN_POINT('',(80.,25.,0.));
#890=VERTEX_POINT('',#880);
#900=EDGE_CURVE('',#870,#890,#850,.T.);
#910=ORIENTED_EDGE('',*,*,#900,.F.);
#920=CARTESIAN_POINT('',(80.,0.,0.));
#930=DIRECTION('',(0.,1.,0.));
#940=VECTOR('',#930,1.);
#950=LINE('',#920,#940);
#960=CARTESIAN_POINT('',(80.,3.,0.));
#970=VERTEX_POINT('',#960);
#980=EDGE_CURVE('',#970,#890,#950,.T.);
#990=ORIENTED_EDGE('',*,*,#980,.T.);
#1000=CARTESIAN_POINT('',(77.,3.,0.));
#1010=DIRECTION('',(0.,0.,1.));
#1020=DIRECTION('',(1.,0.,0.));
#1030=AXIS2_PLACEMENT_3D('',#1000,#1010,#1020);
#1040=CIRCLE('',#1030,3.);
#1050=CARTESIAN_POINT('',(77.,0.,0.));
#1060=VERTEX_POINT('',#1050);
#1070=EDGE_CURVE('',#1060,#970,#1040,.T.);
#1080=ORIENTED_EDGE('',*,*,#1070,.T.);
#1090=CARTESIAN_POINT('',(0.,0.,0.));
#1100=DIRECTION('',(1.,0.,0.));
#1110=VECTOR('',#1100,1.);
#1120=LINE('',#1090,#1110);
#1130=CARTESIAN_POINT('',(3.,0.,0.));
#1140=VERTEX_POINT('',#1130);
#1150=EDGE_CURVE('',#1140,#1060,#1120,.T.);
#1160=ORIENTED_EDGE('',*,*,#1150,.T.);
#1170=CARTESIAN_POINT('',(3.,3.,0.));
#1180=DIRECTION('',(0.,0.,1.));
#1190=DIRECTION('',(1.,0.,0.));
#1200=AXIS2_PLACEMENT_3D('',#1170,#1180,#1190);
#1210=CIRCLE('',#1200,3.);
#1220=CARTESIAN_POINT('',(0.,3.,0.));
#1230=VERTEX_POINT('',#1220);
#1240=EDGE_CURVE('',#1230,#1140,#1210,.T.);
#1250=ORIENTED_EDGE('',*,*,#1240,.T.);
#1260=CARTESIAN_POINT('',(0.,0.,0.));
#1270=DIRECTION('',(0.,1.,0.));
#1280=VECTOR('',#1270,1.);
#1290=LINE('',#1260,#1280);
#1300=CARTESIAN_POINT('',(0.,77.,0.));
#1310=VERTEX_POINT('',#1300);
#1320=EDGE_CURVE('',#1230,#1310,#1290,.T.);
#1330=ORIENTED_EDGE('',*,*,#1320,.F.);
#1340=CARTESIAN_POINT('',(3.,77.,0.));
#1350=DIRECTION('',(0.,0.,1.));
#1360=DIRECTION('',(1.,0.,0.));
#1370=AXIS2_PLACEMENT_3D('',#1340,#1350,#1360);
#1380=CIRCLE('',#1370,3.);
#1390=CARTESIAN_POINT('',(3.,80.,0.));
#1400=VERTEX_POINT('',#1390);
#1410=EDGE_CURVE('',#1400,#1310,#1380,.T.);
#1420=ORIENTED_EDGE('',*,*,#1410,.T.);
#1430=CARTESIAN_POINT('',(0.,80.,0.));
#1440=DIRECTION('',(1.,0.,0.));
#1450=VECTOR('',#1440,1.);
#1460=LINE('',#1430,#1450);
#1470=CARTESIAN_POINT('',(25.,80.,0.));
#1480=VERTEX_POINT('',#1470);
#1490=EDGE_CURVE('',#1400,#1480,#1460,.T.);
#1500=ORIENTED_EDGE('',*,*,#1490,.F.);
#1510=CARTESIAN_POINT('',(25.,77.,0.));
#1520=DIRECTION('',(0.,0.,1.));
#1530=DIRECTION('',(1.,0.,0.));
#1540=AXIS2_PLACEMENT_3D('',#1510,#1520,#1530);
#1550=CIRCLE('',#1540,3.);
#1560=CARTESIAN_POINT('',(28.,77.,0.));
#1570=VERTEX_POINT('',#1560);
#1580=EDGE_CURVE('',#1570,#1480,#1550,.T.);
#1590=ORIENTED_EDGE('',*,*,#1580,.T.);
#1600=CARTESIAN_POINT('',(28.,80.,0.));
#1610=DIRECTION('',(6.83214169000096E-17,-1.,0.));
#1620=VECTOR('',#1610,1.);
#1630=LINE('',#1600,#1620);
#1640=CARTESIAN_POINT('',(28.,28.,0.));
#1650=VERTEX_POINT('',#1640);
#1660=EDGE_CURVE('',#1570,#1650,#1630,.T.);
#1670=ORIENTED_EDGE('',*,*,#1660,.F.);
#1680=CARTESIAN_POINT('',(28.,28.,0.));
#1690=DIRECTION('',(1.,0.,0.));
#1700=VECTOR('',#1690,1.);
#1710=LINE('',#1680,#1700);
#1720=EDGE_CURVE('',#1650,#870,#1710,.T.);
#1730=ORIENTED_EDGE('',*,*,#1720,.F.);
#1740=EDGE_LOOP('',(#1730,#1670,#1590,#1500,#1420,#1330,#1250,#1160,
#1080,#990,#910));
#1750=FACE_OUTER_BOUND('',#1740,.T.);
#1760=ADVANCED_FACE('',(#200,#350,#500,#650,#800,#1750),#50,.T.);
#1770=CARTESIAN_POINT('',(0.,0.,-3.));
#1780=DIRECTION('',(0.,0.,1.));
#1790=DIRECTION('',(1.,0.,0.));
#1800=AXIS2_PLACEMENT_3D('',#1770,#1780,#1790);
#1810=PLANE('',#1800);
#1820=CARTESIAN_POINT('',(64.,14.,-3.));
#1830=DIRECTION('',(0.,0.,1.));
#1840=DIRECTION('',(1.,0.,0.));
#1850=AXIS2_PLACEMENT_3D('',#1820,#1830,#1840);
#1860=CIRCLE('',#1850,3.25);
#1870=CARTESIAN_POINT('',(67.25,14.,-3.));
#1880=VERTEX_POINT('',#1870);
#1890=CARTESIAN_POINT('',(60.75,14.,-3.));
#1900=VERTEX_POINT('',#1890);
#1910=EDGE_CURVE('',#1880,#1900,#1860,.T.);
#1920=ORIENTED_EDGE('',*,*,#1910,.T.);
#1930=EDGE_CURVE('',#1900,#1880,#1860,.T.);
#1940=ORIENTED_EDGE('',*,*,#1930,.T.);
#1950=EDGE_LOOP('',(#1940,#1920));
#1960=FACE_BOUND('',#1950,.T.);
#1970=CARTESIAN_POINT('',(39.,14.,-3.));
#1980=DIRECTION('',(0.,0.,1.));
#1990=DIRECTION('',(1.,0.,0.));
#2000=AXIS2_PLACEMENT_3D('',#1970,#1980,#1990);
#2010=CIRCLE('',#2000,3.25);
#2020=CARTESIAN_POINT('',(42.25,14.,-3.));
#2030=VERTEX_POINT('',#2020);
#2040=CARTESIAN_POINT('',(35.75,14.,-3.));
#2050=VERTEX_POINT('',#2040);
#2060=EDGE_CURVE('',#2030,#2050,#2010,.T.);
#2070=ORIENTED_EDGE('',*,*,#2060,.T.);
#2080=EDGE_CURVE('',#2050,#2030,#2010,.T.);
#2090=ORIENTED_EDGE('',*,*,#2080,.T.);
#2100=EDGE_LOOP('',(#2090,#2070));
#2110=FACE_BOUND('',#2100,.T.);
#2120=CARTESIAN_POINT('',(14.,14.,-3.));
#2130=DIRECTION('',(0.,0.,1.));
#2140=DIRECTION('',(1.,0.,0.));
#2150=AXIS2_PLACEMENT_3D('',#2120,#2130,#2140);
#2160=CIRCLE('',#2150,3.25);
#2170=CARTESIAN_POINT('',(17.25,14.,-3.));
#2180=VERTEX_POINT('',#2170);
#2190=CARTESIAN_POINT('',(10.75,14.,-3.));
#2200=VERTEX_POINT('',#2190);
#2210=EDGE_CURVE('',#2180,#2200,#2160,.T.);
#2220=ORIENTED_EDGE('',*,*,#2210,.T.);
#2230=EDGE_CURVE('',#2200,#2180,#2160,.T.);
#2240=ORIENTED_EDGE('',*,*,#2230,.T.);
#2250=EDGE_LOOP('',(#2240,#2220));
#2260=FACE_BOUND('',#2250,.T.);
#2270=CARTESIAN_POINT('',(14.,39.,-3.));
#2280=DIRECTION('',(0.,0.,1.));
#2290=DIRECTION('',(1.,0.,0.));
#2300=AXIS2_PLACEMENT_3D('',#2270,#2280,#2290);
#2310=CIRCLE('',#2300,3.25);
#2320=CARTESIAN_POINT('',(17.25,39.,-3.));
#2330=VERTEX_POINT('',#2320);
#2340=CARTESIAN_POINT('',(10.75,39.,-3.));
#2350=VERTEX_POINT('',#2340);
#2360=EDGE_CURVE('',#2330,#2350,#2310,.T.);
#2370=ORIENTED_EDGE('',*,*,#2360,.T.);
#2380=EDGE_CURVE('',#2350,#2330,#2310,.T.);
#2390=ORIENTED_EDGE('',*,*,#2380,.T.);
#2400=EDGE_LOOP('',(#2390,#2370));
#2410=FACE_BOUND('',#2400,.T.);
#2420=CARTESIAN_POINT('',(14.,64.,-3.));
#2430=DIRECTION('',(0.,0.,1.));
#2440=DIRECTION('',(1.,0.,0.));
#2450=AXIS2_PLACEMENT_3D('',#2420,#2430,#2440);
#2460=CIRCLE('',#2450,3.25);
#2470=CARTESIAN_POINT('',(17.25,64.,-3.));
#2480=VERTEX_POINT('',#2470);
#2490=CARTESIAN_POINT('',(10.75,64.,-3.));
#2500=VERTEX_POINT('',#2490);
#2510=EDGE_CURVE('',#2480,#2500,#2460,.T.);
#2520=ORIENTED_EDGE('',*,*,#2510,.T.);
#2530=EDGE_CURVE('',#2500,#2480,#2460,.T.);
#2540=ORIENTED_EDGE('',*,*,#2530,.T.);
#2550=EDGE_LOOP('',(#2540,#2520));
#2560=FACE_BOUND('',#2550,.T.);
#2570=CARTESIAN_POINT('',(77.,25.,-3.));
#2580=DIRECTION('',(0.,0.,-1.));
#2590=DIRECTION('',(-1.,0.,0.));
#2600=AXIS2_PLACEMENT_3D('',#2570,#2580,#2590);
#2610=CIRCLE('',#2600,3.);
#2620=CARTESIAN_POINT('',(77.,28.,-3.));
#2630=VERTEX_POINT('',#2620);
#2640=CARTESIAN_POINT('',(80.,25.,-3.));
#2650=VERTEX_POINT('',#2640);
#2660=EDGE_CURVE('',#2630,#2650,#2610,.T.);
#2670=ORIENTED_EDGE('',*,*,#2660,.T.);
#2680=CARTESIAN_POINT('',(28.,28.,-3.));
#2690=DIRECTION('',(1.,0.,0.));
#2700=VECTOR('',#2690,1.);
#2710=LINE('',#2680,#2700);
#2720=CARTESIAN_POINT('',(28.,28.,-3.));
#2730=VERTEX_POINT('',#2720);
#2740=EDGE_CURVE('',#2730,#2630,#2710,.T.);
#2750=ORIENTED_EDGE('',*,*,#2740,.T.);
#2760=CARTESIAN_POINT('',(28.,80.,-3.));
#2770=DIRECTION('',(6.83214169000096E-17,-1.,0.));
#2780=VECTOR('',#2770,1.);
#2790=LINE('',#2760,#2780);
#2800=CARTESIAN_POINT('',(28.,77.,-3.));
#2810=VERTEX_POINT('',#2800);
#2820=EDGE_CURVE('',#2810,#2730,#2790,.T.);
#2830=ORIENTED_EDGE('',*,*,#2820,.T.);
#2840=CARTESIAN_POINT('',(25.,77.,-3.));
#2850=DIRECTION('',(0.,0.,1.));
#2860=DIRECTION('',(1.,0.,0.));
#2870=AXIS2_PLACEMENT_3D('',#2840,#2850,#2860);
#2880=CIRCLE('',#2870,3.);
#2890=CARTESIAN_POINT('',(25.,80.,-3.));
#2900=VERTEX_POINT('',#2890);
#2910=EDGE_CURVE('',#2810,#2900,#2880,.T.);
#2920=ORIENTED_EDGE('',*,*,#2910,.F.);
#2930=CARTESIAN_POINT('',(0.,80.,-3.));
#2940=DIRECTION('',(1.,0.,0.));
#2950=VECTOR('',#2940,1.);
#2960=LINE('',#2930,#2950);
#2970=CARTESIAN_POINT('',(3.,80.,-3.));
#2980=VERTEX_POINT('',#2970);
#2990=EDGE_CURVE('',#2980,#2900,#2960,.T.);
#3000=ORIENTED_EDGE('',*,*,#2990,.T.);
#3010=CARTESIAN_POINT('',(3.,77.,-3.));
#3020=DIRECTION('',(0.,0.,1.));
#3030=DIRECTION('',(1.,0.,0.));
#3040=AXIS2_PLACEMENT_3D('',#3010,#3020,#3030);
#3050=CIRCLE('',#3040,3.);
#3060=CARTESIAN_POINT('',(0.,77.,-3.));
#3070=VERTEX_POINT('',#3060);
#3080=EDGE_CURVE('',#2980,#3070,#3050,.T.);
#3090=ORIENTED_EDGE('',*,*,#3080,.F.);
#3100=CARTESIAN_POINT('',(0.,0.,-3.));
#3110=DIRECTION('',(0.,1.,0.));
#3120=VECTOR('',#3110,1.);
#3130=LINE('',#3100,#3120);
#3140=CARTESIAN_POINT('',(0.,3.,-3.));
#3150=VERTEX_POINT('',#3140);
#3160=EDGE_CURVE('',#3150,#3070,#3130,.T.);
#3170=ORIENTED_EDGE('',*,*,#3160,.T.);
#3180=CARTESIAN_POINT('',(3.,3.,-3.));
#3190=DIRECTION('',(0.,0.,1.));
#3200=DIRECTION('',(1.,0.,0.));
#3210=AXIS2_PLACEMENT_3D('',#3180,#3190,#3200);
#3220=CIRCLE('',#3210,3.);
#3230=CARTESIAN_POINT('',(3.,0.,-3.));
#3240=VERTEX_POINT('',#3230);
#3250=EDGE_CURVE('',#3150,#3240,#3220,.T.);
#3260=ORIENTED_EDGE('',*,*,#3250,.F.);
#3270=CARTESIAN_POINT('',(0.,0.,-3.));
#3280=DIRECTION('',(1.,0.,0.));
#3290=VECTOR('',#3280,1.);
#3300=LINE('',#3270,#3290);
#3310=CARTESIAN_POINT('',(77.,0.,-3.));
#3320=VERTEX_POINT('',#3310);
#3330=EDGE_CURVE('',#3240,#3320,#3300,.T.);
#3340=ORIENTED_EDGE('',*,*,#3330,.F.);
#3350=CARTESIAN_POINT('',(77.,3.,-3.));
#3360=DIRECTION('',(0.,0.,1.));
#3370=DIRECTION('',(1.,0.,0.));
#3380=AXIS2_PLACEMENT_3D('',#3350,#3360,#3370);
#3390=CIRCLE('',#3380,3.);
#3400=CARTESIAN_POINT('',(80.,3.,-3.));
#3410=VERTEX_POINT('',#3400);
#3420=EDGE_CURVE('',#3320,#3410,#3390,.T.);
#3430=ORIENTED_EDGE('',*,*,#3420,.F.);
#3440=CARTESIAN_POINT('',(80.,0.,-3.));
#3450=DIRECTION('',(0.,1.,0.));
#3460=VECTOR('',#3450,1.);
#3470=LINE('',#3440,#3460);
#3480=EDGE_CURVE('',#3410,#2650,#3470,.T.);
#3490=ORIENTED_EDGE('',*,*,#3480,.F.);
#3500=EDGE_LOOP('',(#3490,#3430,#3340,#3260,#3170,#3090,#3000,#2920,
#2830,#2750,#2670));
#3510=FACE_OUTER_BOUND('',#3500,.T.);
#3520=ADVANCED_FACE('',(#1960,#2110,#2260,#2410,#2560,#3510),#1810,.F.);
#3530=CARTESIAN_POINT('',(64.,14.,0.));
#3540=DIRECTION('',(0.,0.,1.));
#3550=DIRECTION('',(1.,0.,0.));
#3560=AXIS2_PLACEMENT_3D('',#3530,#3540,#3550);
#3570=CYLINDRICAL_SURFACE('',#3560,3.25);
#3580=CARTESIAN_POINT('',(67.25,14.,0.));
#3590=DIRECTION('',(0.,0.,1.));
#3600=VECTOR('',#3590,1.);
#3610=LINE('',#3580,#3600);
#3620=EDGE_CURVE('',#1880,#120,#3610,.T.);
#3630=ORIENTED_EDGE('',*,*,#3620,.F.);
#3640=ORIENTED_EDGE('',*,*,#170,.T.);
#3650=CARTESIAN_POINT('',(60.75,14.,0.));
#3660=DIRECTION('',(0.,0.,1.));
#3670=VECTOR('',#3660,1.);
#3680=LINE('',#3650,#3670);
#3690=EDGE_CURVE('',#1900,#140,#3680,.T.);
#3700=ORIENTED_EDGE('',*,*,#3690,.T.);
#3710=ORIENTED_EDGE('',*,*,#1930,.F.);
#3720=EDGE_LOOP('',(#3710,#3700,#3640,#3630));
#3730=FACE_OUTER_BOUND('',#3720,.T.);
#3740=ADVANCED_FACE('',(#3730),#3570,.F.);
#3750=CARTESIAN_POINT('',(39.,14.,0.));
#3760=DIRECTION('',(0.,0.,1.));
#3770=DIRECTION('',(1.,0.,0.));
#3780=AXIS2_PLACEMENT_3D('',#3750,#3760,#3770);
#3790=CYLINDRICAL_SURFACE('',#3780,3.25);
#3800=CARTESIAN_POINT('',(42.25,14.,0.));
#3810=DIRECTION('',(0.,0.,1.));
#3820=VECTOR('',#3810,1.);
#3830=LINE('',#3800,#3820);
#3840=EDGE_CURVE('',#2030,#270,#3830,.T.);
#3850=ORIENTED_EDGE('',*,*,#3840,.F.);
#3860=ORIENTED_EDGE('',*,*,#320,.T.);
#3870=CARTESIAN_POINT('',(35.75,14.,0.));
#3880=DIRECTION('',(0.,0.,1.));
#3890=VECTOR('',#3880,1.);
#3900=LINE('',#3870,#3890);
#3910=EDGE_CURVE('',#2050,#290,#3900,.T.);
#3920=ORIENTED_EDGE('',*,*,#3910,.T.);
#3930=ORIENTED_EDGE('',*,*,#2080,.F.);
#3940=EDGE_LOOP('',(#3930,#3920,#3860,#3850));
#3950=FACE_OUTER_BOUND('',#3940,.T.);
#3960=ADVANCED_FACE('',(#3950),#3790,.F.);
#3970=CARTESIAN_POINT('',(14.,14.,0.));
#3980=DIRECTION('',(0.,0.,1.));
#3990=DIRECTION('',(1.,0.,0.));
#4000=AXIS2_PLACEMENT_3D('',#3970,#3980,#3990);
#4010=CYLINDRICAL_SURFACE('',#4000,3.25);
#4020=CARTESIAN_POINT('',(17.25,14.,0.));
#4030=DIRECTION('',(0.,0.,1.));
#4040=VECTOR('',#4030,1.);
#4050=LINE('',#4020,#4040);
#4060=EDGE_CURVE('',#2180,#420,#4050,.T.);
#4070=ORIENTED_EDGE('',*,*,#4060,.F.);
#4080=ORIENTED_EDGE('',*,*,#470,.T.);
#4090=CARTESIAN_POINT('',(10.75,14.,0.));
#4100=DIRECTION('',(0.,0.,1.));
#4110=VECTOR('',#4100,1.);
#4120=LINE('',#4090,#4110);
#4130=EDGE_CURVE('',#2200,#440,#4120,.T.);
#4140=ORIENTED_EDGE('',*,*,#4130,.T.);
#4150=ORIENTED_EDGE('',*,*,#2230,.F.);
#4160=EDGE_LOOP('',(#4150,#4140,#4080,#4070));
#4170=FACE_OUTER_BOUND('',#4160,.T.);
#4180=ADVANCED_FACE('',(#4170),#4010,.F.);
#4190=CARTESIAN_POINT('',(14.,39.,0.));
#4200=DIRECTION('',(0.,0.,1.));
#4210=DIRECTION('',(1.,0.,0.));
#4220=AXIS2_PLACEMENT_3D('',#4190,#4200,#4210);
#4230=CYLINDRICAL_SURFACE('',#4220,3.25);
#4240=CARTESIAN_POINT('',(17.25,39.,0.));
#4250=DIRECTION('',(0.,0.,1.));
#4260=VECTOR('',#4250,1.);
#4270=LINE('',#4240,#4260);
#4280=EDGE_CURVE('',#2330,#570,#4270,.T.);
#4290=ORIENTED_EDGE('',*,*,#4280,.F.);
#4300=ORIENTED_EDGE('',*,*,#620,.T.);
#4310=CARTESIAN_POINT('',(10.75,39.,0.));
#4320=DIRECTION('',(0.,0.,1.));
#4330=VECTOR('',#4320,1.);
#4340=LINE('',#4310,#4330);
#4350=EDGE_CURVE('',#2350,#590,#4340,.T.);
#4360=ORIENTED_EDGE('',*,*,#4350,.T.);
#4370=ORIENTED_EDGE('',*,*,#2380,.F.);
#4380=EDGE_LOOP('',(#4370,#4360,#4300,#4290));
#4390=FACE_OUTER_BOUND('',#4380,.T.);
#4400=ADVANCED_FACE('',(#4390),#4230,.F.);
#4410=CARTESIAN_POINT('',(14.,64.,0.));
#4420=DIRECTION('',(0.,0.,1.));
#4430=DIRECTION('',(1.,0.,0.));
#4440=AXIS2_PLACEMENT_3D('',#4410,#4420,#4430);
#4450=CYLINDRICAL_SURFACE('',#4440,3.25);
#4460=CARTESIAN_POINT('',(17.25,64.,0.));
#4470=DIRECTION('',(0.,0.,1.));
#4480=VECTOR('',#4470,1.);
#4490=LINE('',#4460,#4480);
#4500=EDGE_CURVE('',#2480,#720,#4490,.T.);
#4510=ORIENTED_EDGE('',*,*,#4500,.F.);
#4520=ORIENTED_EDGE('',*,*,#770,.T.);
#4530=CARTESIAN_POINT('',(10.75,64.,0.));
#4540=DIRECTION('',(0.,0.,1.));
#4550=VECTOR('',#4540,1.);
#4560=LINE('',#4530,#4550);
#4570=EDGE_CURVE('',#2500,#740,#4560,.T.);
#4580=ORIENTED_EDGE('',*,*,#4570,.T.);
#4590=ORIENTED_EDGE('',*,*,#2530,.F.);
#4600=EDGE_LOOP('',(#4590,#4580,#4520,#4510));
#4610=FACE_OUTER_BOUND('',#4600,.T.);
#4620=ADVANCED_FACE('',(#4610),#4450,.F.);
#4630=CARTESIAN_POINT('',(14.,64.,0.));
#4640=DIRECTION('',(0.,0.,1.));
#4650=DIRECTION('',(1.,0.,0.));
#4660=AXIS2_PLACEMENT_3D('',#4630,#4640,#4650);
#4670=CYLINDRICAL_SURFACE('',#4660,3.25);
#4680=ORIENTED_EDGE('',*,*,#2510,.F.);
#4690=ORIENTED_EDGE('',*,*,#4570,.F.);
#4700=ORIENTED_EDGE('',*,*,#750,.T.);
#4710=ORIENTED_EDGE('',*,*,#4500,.T.);
#4720=EDGE_LOOP('',(#4710,#4700,#4690,#4680));
#4730=FACE_OUTER_BOUND('',#4720,.T.);
#4740=ADVANCED_FACE('',(#4730),#4670,.F.);
#4750=CARTESIAN_POINT('',(14.,39.,0.));
#4760=DIRECTION('',(0.,0.,1.));
#4770=DIRECTION('',(1.,0.,0.));
#4780=AXIS2_PLACEMENT_3D('',#4750,#4760,#4770);
#4790=CYLINDRICAL_SURFACE('',#4780,3.25);
#4800=ORIENTED_EDGE('',*,*,#2360,.F.);
#4810=ORIENTED_EDGE('',*,*,#4350,.F.);
#4820=ORIENTED_EDGE('',*,*,#600,.T.);
#4830=ORIENTED_EDGE('',*,*,#4280,.T.);
#4840=EDGE_LOOP('',(#4830,#4820,#4810,#4800));
#4850=FACE_OUTER_BOUND('',#4840,.T.);
#4860=ADVANCED_FACE('',(#4850),#4790,.F.);
#4870=CARTESIAN_POINT('',(14.,14.,0.));
#4880=DIRECTION('',(0.,0.,1.));
#4890=DIRECTION('',(1.,0.,0.));
#4900=AXIS2_PLACEMENT_3D('',#4870,#4880,#4890);
#4910=CYLINDRICAL_SURFACE('',#4900,3.25);
#4920=ORIENTED_EDGE('',*,*,#2210,.F.);
#4930=ORIENTED_EDGE('',*,*,#4130,.F.);
#4940=ORIENTED_EDGE('',*,*,#450,.T.);
#4950=ORIENTED_EDGE('',*,*,#4060,.T.);
#4960=EDGE_LOOP('',(#4950,#4940,#4930,#4920));
#4970=FACE_OUTER_BOUND('',#4960,.T.);
#4980=ADVANCED_FACE('',(#4970),#4910,.F.);
#4990=CARTESIAN_POINT('',(39.,14.,0.));
#5000=DIRECTION('',(0.,0.,1.));
#5010=DIRECTION('',(1.,0.,0.));
#5020=AXIS2_PLACEMENT_3D('',#4990,#5000,#5010);
#5030=CYLINDRICAL_SURFACE('',#5020,3.25);
#5040=ORIENTED_EDGE('',*,*,#2060,.F.);
#5050=ORIENTED_EDGE('',*,*,#3910,.F.);
#5060=ORIENTED_EDGE('',*,*,#300,.T.);
#5070=ORIENTED_EDGE('',*,*,#3840,.T.);
#5080=EDGE_LOOP('',(#5070,#5060,#5050,#5040));
#5090=FACE_OUTER_BOUND('',#5080,.T.);
#5100=ADVANCED_FACE('',(#5090),#5030,.F.);
#5110=CARTESIAN_POINT('',(64.,14.,0.));
#5120=DIRECTION('',(0.,0.,1.));
#5130=DIRECTION('',(1.,0.,0.));
#5140=AXIS2_PLACEMENT_3D('',#5110,#5120,#5130);
#5150=CYLINDRICAL_SURFACE('',#5140,3.25);
#5160=ORIENTED_EDGE('',*,*,#1910,.F.);
#5170=ORIENTED_EDGE('',*,*,#3690,.F.);
#5180=ORIENTED_EDGE('',*,*,#150,.T.);
#5190=ORIENTED_EDGE('',*,*,#3620,.T.);
#5200=EDGE_LOOP('',(#5190,#5180,#5170,#5160));
#5210=FACE_OUTER_BOUND('',#5200,.T.);
#5220=ADVANCED_FACE('',(#5210),#5150,.F.);
#5230=CARTESIAN_POINT('',(28.,28.,0.));
#5240=DIRECTION('',(-0.,-1.,-0.));
#5250=DIRECTION('',(-1.,0.,0.));
#5260=AXIS2_PLACEMENT_3D('',#5230,#5240,#5250);
#5270=PLANE('',#5260);
#5280=ORIENTED_EDGE('',*,*,#1720,.T.);
#5290=CARTESIAN_POINT('',(28.,28.,0.));
#5300=DIRECTION('',(0.,0.,-1.));
#5310=VECTOR('',#5300,1.);
#5320=LINE('',#5290,#5310);
#5330=EDGE_CURVE('',#1650,#2730,#5320,.T.);
#5340=ORIENTED_EDGE('',*,*,#5330,.F.);
#5350=ORIENTED_EDGE('',*,*,#2740,.F.);
#5360=CARTESIAN_POINT('',(77.,28.,0.));
#5370=DIRECTION('',(0.,0.,-1.));
#5380=VECTOR('',#5370,1.);
#5390=LINE('',#5360,#5380);
#5400=EDGE_CURVE('',#870,#2630,#5390,.T.);
#5410=ORIENTED_EDGE('',*,*,#5400,.T.);
#5420=EDGE_LOOP('',(#5410,#5350,#5340,#5280));
#5430=FACE_OUTER_BOUND('',#5420,.T.);
#5440=ADVANCED_FACE('',(#5430),#5270,.F.);
#5450=CARTESIAN_POINT('',(28.,80.,0.));
#5460=DIRECTION('',(-1.,-6.83214169000096E-17,-0.));
#5470=DIRECTION('',(-6.83214169000096E-17,1.,0.));
#5480=AXIS2_PLACEMENT_3D('',#5450,#5460,#5470);
#5490=PLANE('',#5480);
#5500=ORIENTED_EDGE('',*,*,#2820,.F.);
#5510=ORIENTED_EDGE('',*,*,#5330,.T.);
#5520=ORIENTED_EDGE('',*,*,#1660,.T.);
#5530=CARTESIAN_POINT('',(28.,77.,0.));
#5540=DIRECTION('',(0.,0.,-1.));
#5550=VECTOR('',#5540,1.);
#5560=LINE('',#5530,#5550);
#5570=EDGE_CURVE('',#1570,#2810,#5560,.T.);
#5580=ORIENTED_EDGE('',*,*,#5570,.F.);
#5590=EDGE_LOOP('',(#5580,#5520,#5510,#5500));
#5600=FACE_OUTER_BOUND('',#5590,.T.);
#5610=ADVANCED_FACE('',(#5600),#5490,.F.);
#5620=CARTESIAN_POINT('',(0.,80.,0.));
#5630=DIRECTION('',(-0.,-1.,-0.));
#5640=DIRECTION('',(-1.,0.,0.));
#5650=AXIS2_PLACEMENT_3D('',#5620,#5630,#5640);
#5660=PLANE('',#5650);
#5670=ORIENTED_EDGE('',*,*,#2990,.F.);
#5680=CARTESIAN_POINT('',(25.,80.,0.));
#5690=DIRECTION('',(0.,0.,-1.));
#5700=VECTOR('',#5690,1.);
#5710=LINE('',#5680,#5700);
#5720=EDGE_CURVE('',#1480,#2900,#5710,.T.);
#5730=ORIENTED_EDGE('',*,*,#5720,.T.);
#5740=ORIENTED_EDGE('',*,*,#1490,.T.);
#5750=CARTESIAN_POINT('',(3.,80.,0.));
#5760=DIRECTION('',(0.,0.,-1.));
#5770=VECTOR('',#5760,1.);
#5780=LINE('',#5750,#5770);
#5790=EDGE_CURVE('',#1400,#2980,#5780,.T.);
#5800=ORIENTED_EDGE('',*,*,#5790,.F.);
#5810=EDGE_LOOP('',(#5800,#5740,#5730,#5670));
#5820=FACE_OUTER_BOUND('',#5810,.T.);
#5830=ADVANCED_FACE('',(#5820),#5660,.F.);
#5840=CARTESIAN_POINT('',(0.,0.,0.));
#5850=DIRECTION('',(1.,0.,0.));
#5860=DIRECTION('',(0.,-1.,0.));
#5870=AXIS2_PLACEMENT_3D('',#5840,#5850,#5860);
#5880=PLANE('',#5870);
#5890=ORIENTED_EDGE('',*,*,#3160,.F.);
#5900=CARTESIAN_POINT('',(0.,77.,0.));
#5910=DIRECTION('',(0.,0.,-1.));
#5920=VECTOR('',#5910,1.);
#5930=LINE('',#5900,#5920);
#5940=EDGE_CURVE('',#1310,#3070,#5930,.T.);
#5950=ORIENTED_EDGE('',*,*,#5940,.T.);
#5960=ORIENTED_EDGE('',*,*,#1320,.T.);
#5970=CARTESIAN_POINT('',(0.,3.,0.));
#5980=DIRECTION('',(0.,0.,-1.));
#5990=VECTOR('',#5980,1.);
#6000=LINE('',#5970,#5990);
#6010=EDGE_CURVE('',#1230,#3150,#6000,.T.);
#6020=ORIENTED_EDGE('',*,*,#6010,.F.);
#6030=EDGE_LOOP('',(#6020,#5960,#5950,#5890));
#6040=FACE_OUTER_BOUND('',#6030,.T.);
#6050=ADVANCED_FACE('',(#6040),#5880,.F.);
#6060=CARTESIAN_POINT('',(80.,0.,0.));
#6070=DIRECTION('',(-0.,1.,0.));
#6080=DIRECTION('',(1.,0.,0.));
#6090=AXIS2_PLACEMENT_3D('',#6060,#6070,#6080);
#6100=PLANE('',#6090);
#6110=ORIENTED_EDGE('',*,*,#3330,.T.);
#6120=CARTESIAN_POINT('',(3.,0.,0.));
#6130=DIRECTION('',(0.,0.,-1.));
#6140=VECTOR('',#6130,1.);
#6150=LINE('',#6120,#6140);
#6160=EDGE_CURVE('',#1140,#3240,#6150,.T.);
#6170=ORIENTED_EDGE('',*,*,#6160,.T.);
#6180=ORIENTED_EDGE('',*,*,#1150,.F.);
#6190=CARTESIAN_POINT('',(77.,0.,0.));
#6200=DIRECTION('',(0.,0.,-1.));
#6210=VECTOR('',#6200,1.);
#6220=LINE('',#6190,#6210);
#6230=EDGE_CURVE('',#1060,#3320,#6220,.T.);
#6240=ORIENTED_EDGE('',*,*,#6230,.F.);
#6250=EDGE_LOOP('',(#6240,#6180,#6170,#6110));
#6260=FACE_OUTER_BOUND('',#6250,.T.);
#6270=ADVANCED_FACE('',(#6260),#6100,.F.);
#6280=CARTESIAN_POINT('',(80.,28.,0.));
#6290=DIRECTION('',(-1.,0.,0.));
#6300=DIRECTION('',(0.,1.,0.));
#6310=AXIS2_PLACEMENT_3D('',#6280,#6290,#6300);
#6320=PLANE('',#6310);
#6330=ORIENTED_EDGE('',*,*,#980,.F.);
#6340=CARTESIAN_POINT('',(80.,25.,0.));
#6350=DIRECTION('',(0.,0.,-1.));
#6360=VECTOR('',#6350,1.);
#6370=LINE('',#6340,#6360);
#6380=EDGE_CURVE('',#890,#2650,#6370,.T.);
#6390=ORIENTED_EDGE('',*,*,#6380,.F.);
#6400=ORIENTED_EDGE('',*,*,#3480,.T.);
#6410=CARTESIAN_POINT('',(80.,3.,0.));
#6420=DIRECTION('',(0.,0.,-1.));
#6430=VECTOR('',#6420,1.);
#6440=LINE('',#6410,#6430);
#6450=EDGE_CURVE('',#970,#3410,#6440,.T.);
#6460=ORIENTED_EDGE('',*,*,#6450,.T.);
#6470=EDGE_LOOP('',(#6460,#6400,#6390,#6330));
#6480=FACE_OUTER_BOUND('',#6470,.T.);
#6490=ADVANCED_FACE('',(#6480),#6320,.F.);
#6500=CARTESIAN_POINT('',(25.,77.,0.));
#6510=DIRECTION('',(0.,0.,1.));
#6520=DIRECTION('',(1.,0.,0.));
#6530=AXIS2_PLACEMENT_3D('',#6500,#6510,#6520);
#6540=CYLINDRICAL_SURFACE('',#6530,3.);
#6550=ORIENTED_EDGE('',*,*,#1580,.F.);
#6560=ORIENTED_EDGE('',*,*,#5720,.F.);
#6570=ORIENTED_EDGE('',*,*,#2910,.T.);
#6580=ORIENTED_EDGE('',*,*,#5570,.T.);
#6590=EDGE_LOOP('',(#6580,#6570,#6560,#6550));
#6600=FACE_OUTER_BOUND('',#6590,.T.);
#6610=ADVANCED_FACE('',(#6600),#6540,.T.);
#6620=CARTESIAN_POINT('',(77.,25.,0.));
#6630=DIRECTION('',(0.,0.,-1.));
#6640=DIRECTION('',(-1.,0.,0.));
#6650=AXIS2_PLACEMENT_3D('',#6620,#6630,#6640);
#6660=CYLINDRICAL_SURFACE('',#6650,3.);
#6670=ORIENTED_EDGE('',*,*,#2660,.F.);
#6680=ORIENTED_EDGE('',*,*,#6380,.T.);
#6690=ORIENTED_EDGE('',*,*,#900,.T.);
#6700=ORIENTED_EDGE('',*,*,#5400,.F.);
#6710=EDGE_LOOP('',(#6700,#6690,#6680,#6670));
#6720=FACE_OUTER_BOUND('',#6710,.T.);
#6730=ADVANCED_FACE('',(#6720),#6660,.T.);
#6740=CARTESIAN_POINT('',(77.,3.,0.));
#6750=DIRECTION('',(0.,0.,1.));
#6760=DIRECTION('',(1.,0.,0.));
#6770=AXIS2_PLACEMENT_3D('',#6740,#6750,#6760);
#6780=CYLINDRICAL_SURFACE('',#6770,3.);
#6790=ORIENTED_EDGE('',*,*,#1070,.F.);
#6800=ORIENTED_EDGE('',*,*,#6450,.F.);
#6810=ORIENTED_EDGE('',*,*,#3420,.T.);
#6820=ORIENTED_EDGE('',*,*,#6230,.T.);
#6830=EDGE_LOOP('',(#6820,#6810,#6800,#6790));
#6840=FACE_OUTER_BOUND('',#6830,.T.);
#6850=ADVANCED_FACE('',(#6840),#6780,.T.);
#6860=CARTESIAN_POINT('',(3.,3.,0.));
#6870=DIRECTION('',(0.,0.,1.));
#6880=DIRECTION('',(1.,0.,0.));
#6890=AXIS2_PLACEMENT_3D('',#6860,#6870,#6880);
#6900=CYLINDRICAL_SURFACE('',#6890,3.);
#6910=ORIENTED_EDGE('',*,*,#1240,.F.);
#6920=ORIENTED_EDGE('',*,*,#6160,.F.);
#6930=ORIENTED_EDGE('',*,*,#3250,.T.);
#6940=ORIENTED_EDGE('',*,*,#6010,.T.);
#6950=EDGE_LOOP('',(#6940,#6930,#6920,#6910));
#6960=FACE_OUTER_BOUND('',#6950,.T.);
#6970=ADVANCED_FACE('',(#6960),#6900,.T.);
#6980=CARTESIAN_POINT('',(3.,77.,0.));
#6990=DIRECTION('',(0.,0.,1.));
#7000=DIRECTION('',(1.,0.,0.));
#7010=AXIS2_PLACEMENT_3D('',#6980,#6990,#7000);
#7020=CYLINDRICAL_SURFACE('',#7010,3.);
#7030=ORIENTED_EDGE('',*,*,#1410,.F.);
#7040=ORIENTED_EDGE('',*,*,#5940,.F.);
#7050=ORIENTED_EDGE('',*,*,#3080,.T.);
#7060=ORIENTED_EDGE('',*,*,#5790,.T.);
#7070=EDGE_LOOP('',(#7060,#7050,#7040,#7030));
#7080=FACE_OUTER_BOUND('',#7070,.T.);
#7090=ADVANCED_FACE('',(#7080),#7020,.T.);
#7100=CLOSED_SHELL('',(#5440,#5610,#5830,#6050,#6270,#6490,#6610,#6730,
#6850,#6970,#7090,#3520,#3740,#3960,#4180,#4400,#4620,#4740,#4860,#4980,
#5100,#5220,#1760));
#7110=MANIFOLD_SOLID_BREP('',#7100);
#7120=CARTESIAN_POINT('',(0.,0.,0.));
#7130=DIRECTION('',(0.,0.,1.));
#7140=DIRECTION('',(1.,0.,0.));
#7150=AXIS2_PLACEMENT_3D('',#7120,#7130,#7140);
#7160=APPLICATION_CONTEXT(' ');
#7170=APPLICATION_PROTOCOL_DEFINITION(' ','automotive_design',1998,#7160
);
#7180=PRODUCT_CONTEXT('',#7160,'mechanical');
#7190=PRODUCT_DEFINITION_CONTEXT('part definition',#7160,'design');
#7200=PRODUCT(
'Winkelplatte-MMS-33_3mm-chem-vernickelt_33.0175.1_PX176084',
'Winkelplatte-MMS-33_3mm-chem-vernickelt_33.0175.1_PX176084','',(#7180))
;
#7210=PRODUCT_RELATED_PRODUCT_CATEGORY('part',' ',(#7200));
#7220=PRODUCT_DEFINITION_FORMATION_WITH_SPECIFIED_SOURCE('','',#7200,
.BOUGHT.);
#7230=PRODUCT_DEFINITION('',' ',#7220,#7190);
#7240=PRODUCT_DEFINITION_SHAPE('','',#7230);
#7250=DIMENSIONAL_EXPONENTS(1.,0.,0.,0.,0.,0.,0.);
#7260=DIMENSIONAL_EXPONENTS(0.,0.,0.,0.,0.,0.,0.);
#7270=DIMENSIONAL_EXPONENTS(0.,0.,0.,0.,0.,0.,0.);
#7280=(LENGTH_UNIT() NAMED_UNIT(*) SI_UNIT(.MILLI.,.METRE.));
#7290=(NAMED_UNIT(*) PLANE_ANGLE_UNIT() SI_UNIT($,.RADIAN.));
#7300=(NAMED_UNIT(*) SI_UNIT($,.STERADIAN.) SOLID_ANGLE_UNIT());
#7310=(GEOMETRIC_REPRESENTATION_CONTEXT(3) 
GLOBAL_UNCERTAINTY_ASSIGNED_CONTEXT((#7320)) 
GLOBAL_UNIT_ASSIGNED_CONTEXT((#7280,#7290,#7300)) REPRESENTATION_CONTEXT
('',''));
#7320=UNCERTAINTY_MEASURE_WITH_UNIT(LENGTH_MEASURE(1.E-6),#7280,
'distance_accuracy_value','maximum gap value');
#7330=ADVANCED_BREP_SHAPE_REPRESENTATION('',(#7150,#7110),#7310);
#7340=SHAPE_DEFINITION_REPRESENTATION(#7240,#7330);
#7350=COLOUR_RGB('',0.690196096897125,0.886274576187134,1.);
#7360=FILL_AREA_STYLE_COLOUR('',#7350);
#7370=FILL_AREA_STYLE('',(#7360));
#7380=SURFACE_STYLE_FILL_AREA(#7370);
#7390=SURFACE_SIDE_STYLE('',(#7380));
#7400=SURFACE_STYLE_USAGE(.BOTH.,#7390);
#7410=PRESENTATION_STYLE_ASSIGNMENT((#7400));
#7420=STYLED_ITEM('',(#7410),#7110);
#7430=DRAUGHTING_MODEL('',(#7420),#7310);
ENDSEC;
END-ISO-10303-21;
