ISO-10303-21;
HEADER;
FILE_DESCRIPTION(('Creo Elements/Direct Modeling STEP Export'),'2;1');
FILE_NAME(
'//KR-CAD2/PhoenixTemp/karl.letzgus/Konvertierung/33.0205_Haltewinkel-MM
S-33_30x30x30x4.stp','2022-03-18T13:57:51',(''),(''),
'PTC Creo Elements/Direct Modeling STEP processor for AP214 (Solid Model
)',
'PTC Creo Elements/Direct Modeling 19.0C  15-Aug-2015 (C) Parametric Tec
hnology GmbH','');
FILE_SCHEMA(('AUTOMOTIVE_DESIGN { 1 0 10303 214 1 1 1 1 }'));
ENDSEC;
DATA;
#10=CARTESIAN_POINT('',(-2.89970626398423E-31,-15.,-10.96));
#20=DIRECTION('',(0.,0.,-1.));
#30=DIRECTION('',(-1.,0.,0.));
#40=AXIS2_PLACEMENT_3D('',#10,#20,#30);
#50=CYLINDRICAL_SURFACE('',#40,3.3);
#60=CARTESIAN_POINT('',(-3.3,-15.,-10.96));
#70=DIRECTION('',(0.,0.,-1.));
#80=VECTOR('',#70,1.);
#90=LINE('',#60,#80);
#100=CARTESIAN_POINT('',(-3.3,-15.,-11.));
#110=VERTEX_POINT('',#100);
#120=CARTESIAN_POINT('',(-3.3,-15.,-15.));
#130=VERTEX_POINT('',#120);
#140=EDGE_CURVE('',#110,#130,#90,.T.);
#150=ORIENTED_EDGE('',*,*,#140,.F.);
#160=CARTESIAN_POINT('',(-2.89970626398423E-31,-15.,-15.));
#170=DIRECTION('',(0.,0.,1.));
#180=DIRECTION('',(-1.,0.,0.));
#190=AXIS2_PLACEMENT_3D('',#160,#170,#180);
#200=CIRCLE('',#190,3.3);
#210=CARTESIAN_POINT('',(3.3,-15.,-15.));
#220=VERTEX_POINT('',#210);
#230=EDGE_CURVE('',#130,#220,#200,.T.);
#240=ORIENTED_EDGE('',*,*,#230,.F.);
#250=CARTESIAN_POINT('',(3.3,-15.,-10.96));
#260=DIRECTION('',(0.,0.,-1.));
#270=VECTOR('',#260,1.);
#280=LINE('',#250,#270);
#290=CARTESIAN_POINT('',(3.3,-15.,-11.));
#300=VERTEX_POINT('',#290);
#310=EDGE_CURVE('',#300,#220,#280,.T.);
#320=ORIENTED_EDGE('',*,*,#310,.T.);
#330=CARTESIAN_POINT('',(-2.89970626398423E-31,-15.,-11.));
#340=DIRECTION('',(0.,0.,-1.));
#350=DIRECTION('',(-1.,0.,0.));
#360=AXIS2_PLACEMENT_3D('',#330,#340,#350);
#370=CIRCLE('',#360,3.3);
#380=EDGE_CURVE('',#300,#110,#370,.T.);
#390=ORIENTED_EDGE('',*,*,#380,.F.);
#400=EDGE_LOOP('',(#390,#320,#240,#150));
#410=FACE_OUTER_BOUND('',#400,.T.);
#420=ADVANCED_FACE('',(#410),#50,.F.);
#430=CARTESIAN_POINT('',(9.79190351533282E-33,0.0400000000000009,
2.02804493395501E-16));
#440=DIRECTION('',(0.,-1.,0.));
#450=DIRECTION('',(-1.,0.,0.));
#460=AXIS2_PLACEMENT_3D('',#430,#440,#450);
#470=CYLINDRICAL_SURFACE('',#460,3.3);
#480=CARTESIAN_POINT('',(3.3,0.0400000000000009,-2.01328950323125E-16));
#490=DIRECTION('',(0.,-1.,0.));
#500=VECTOR('',#490,1.);
#510=LINE('',#480,#500);
#520=CARTESIAN_POINT('',(3.3,-9.36750677027476E-16,-2.01328950323125E-16
));
#530=VERTEX_POINT('',#520);
#540=CARTESIAN_POINT('',(3.3,-4.,-2.01328950323125E-16));
#550=VERTEX_POINT('',#540);
#560=EDGE_CURVE('',#530,#550,#510,.T.);
#570=ORIENTED_EDGE('',*,*,#560,.F.);
#580=CARTESIAN_POINT('',(9.79190351533282E-33,-4.,2.02804493395501E-16))
;
#590=DIRECTION('',(0.,1.,0.));
#600=DIRECTION('',(-1.,0.,0.));
#610=AXIS2_PLACEMENT_3D('',#580,#590,#600);
#620=CIRCLE('',#610,3.3);
#630=CARTESIAN_POINT('',(-3.3,-4.,2.02804493395501E-16));
#640=VERTEX_POINT('',#630);
#650=EDGE_CURVE('',#550,#640,#620,.T.);
#660=ORIENTED_EDGE('',*,*,#650,.F.);
#670=CARTESIAN_POINT('',(-3.3,0.0400000000000009,2.02804493395501E-16));
#680=DIRECTION('',(0.,-1.,0.));
#690=VECTOR('',#680,1.);
#700=LINE('',#670,#690);
#710=CARTESIAN_POINT('',(-3.3,-9.36750677027476E-16,2.02804493395501E-16
));
#720=VERTEX_POINT('',#710);
#730=EDGE_CURVE('',#720,#640,#700,.T.);
#740=ORIENTED_EDGE('',*,*,#730,.T.);
#750=CARTESIAN_POINT('',(9.79190351533282E-33,-9.36750677027476E-16,
2.02804493395501E-16));
#760=DIRECTION('',(0.,-1.,0.));
#770=DIRECTION('',(-1.,0.,0.));
#780=AXIS2_PLACEMENT_3D('',#750,#760,#770);
#790=CIRCLE('',#780,3.3);
#800=EDGE_CURVE('',#720,#530,#790,.T.);
#810=ORIENTED_EDGE('',*,*,#800,.F.);
#820=EDGE_LOOP('',(#810,#740,#660,#570));
#830=FACE_OUTER_BOUND('',#820,.T.);
#840=ADVANCED_FACE('',(#830),#470,.F.);
#850=CARTESIAN_POINT('',(-15.3,-30.26,-11.));
#860=DIRECTION('',(0.,0.,1.));
#870=DIRECTION('',(1.,0.,0.));
#880=AXIS2_PLACEMENT_3D('',#850,#860,#870);
#890=PLANE('',#880);
#900=EDGE_CURVE('',#110,#300,#370,.T.);
#910=ORIENTED_EDGE('',*,*,#900,.T.);
#920=ORIENTED_EDGE('',*,*,#380,.T.);
#930=EDGE_LOOP('',(#920,#910));
#940=FACE_BOUND('',#930,.T.);
#950=CARTESIAN_POINT('',(15.,0.,-11.));
#960=DIRECTION('',(0.,1.,0.));
#970=VECTOR('',#960,1.);
#980=LINE('',#950,#970);
#990=CARTESIAN_POINT('',(15.,-30.,-11.));
#1000=VERTEX_POINT('',#990);
#1010=CARTESIAN_POINT('',(15.,-4.,-11.));
#1020=VERTEX_POINT('',#1010);
#1030=EDGE_CURVE('',#1000,#1020,#980,.T.);
#1040=ORIENTED_EDGE('',*,*,#1030,.T.);
#1050=CARTESIAN_POINT('',(0.,-30.,-11.));
#1060=DIRECTION('',(1.,0.,0.));
#1070=VECTOR('',#1060,1.);
#1080=LINE('',#1050,#1070);
#1090=CARTESIAN_POINT('',(-15.,-30.,-11.));
#1100=VERTEX_POINT('',#1090);
#1110=EDGE_CURVE('',#1100,#1000,#1080,.T.);
#1120=ORIENTED_EDGE('',*,*,#1110,.T.);
#1130=CARTESIAN_POINT('',(-15.,0.,-11.));
#1140=DIRECTION('',(0.,-1.,0.));
#1150=VECTOR('',#1140,1.);
#1160=LINE('',#1130,#1150);
#1170=CARTESIAN_POINT('',(-15.,-4.,-11.));
#1180=VERTEX_POINT('',#1170);
#1190=EDGE_CURVE('',#1180,#1100,#1160,.T.);
#1200=ORIENTED_EDGE('',*,*,#1190,.T.);
#1210=CARTESIAN_POINT('',(0.,-4.,-11.));
#1220=DIRECTION('',(1.,0.,0.));
#1230=VECTOR('',#1220,1.);
#1240=LINE('',#1210,#1230);
#1250=EDGE_CURVE('',#1180,#1020,#1240,.T.);
#1260=ORIENTED_EDGE('',*,*,#1250,.F.);
#1270=EDGE_LOOP('',(#1260,#1200,#1120,#1040));
#1280=FACE_OUTER_BOUND('',#1270,.T.);
#1290=ADVANCED_FACE('',(#940,#1280),#890,.T.);
#1300=CARTESIAN_POINT('',(-15.3,-30.,-15.04));
#1310=DIRECTION('',(-0.,1.,0.));
#1320=DIRECTION('',(1.,0.,0.));
#1330=AXIS2_PLACEMENT_3D('',#1300,#1310,#1320);
#1340=PLANE('',#1330);
#1350=ORIENTED_EDGE('',*,*,#1110,.F.);
#1360=CARTESIAN_POINT('',(15.,-30.,0.));
#1370=DIRECTION('',(0.,0.,1.));
#1380=VECTOR('',#1370,1.);
#1390=LINE('',#1360,#1380);
#1400=CARTESIAN_POINT('',(15.,-30.,-15.));
#1410=VERTEX_POINT('',#1400);
#1420=EDGE_CURVE('',#1410,#1000,#1390,.T.);
#1430=ORIENTED_EDGE('',*,*,#1420,.T.);
#1440=CARTESIAN_POINT('',(0.,-30.,-15.));
#1450=DIRECTION('',(-1.,0.,0.));
#1460=VECTOR('',#1450,1.);
#1470=LINE('',#1440,#1460);
#1480=CARTESIAN_POINT('',(-15.,-30.,-15.));
#1490=VERTEX_POINT('',#1480);
#1500=EDGE_CURVE('',#1410,#1490,#1470,.T.);
#1510=ORIENTED_EDGE('',*,*,#1500,.F.);
#1520=CARTESIAN_POINT('',(-15.,-30.,0.));
#1530=DIRECTION('',(0.,0.,-1.));
#1540=VECTOR('',#1530,1.);
#1550=LINE('',#1520,#1540);
#1560=EDGE_CURVE('',#1100,#1490,#1550,.T.);
#1570=ORIENTED_EDGE('',*,*,#1560,.T.);
#1580=EDGE_LOOP('',(#1570,#1510,#1430,#1350));
#1590=FACE_OUTER_BOUND('',#1580,.T.);
#1600=ADVANCED_FACE('',(#1590),#1340,.F.);
#1610=CARTESIAN_POINT('',(15.,0.3,-15.3));
#1620=DIRECTION('',(-1.,0.,0.));
#1630=DIRECTION('',(0.,1.,0.));
#1640=AXIS2_PLACEMENT_3D('',#1610,#1620,#1630);
#1650=PLANE('',#1640);
#1660=CARTESIAN_POINT('',(15.,-9.36823860674119E-16,0.));
#1670=DIRECTION('',(0.,0.,-1.));
#1680=VECTOR('',#1670,1.);
#1690=LINE('',#1660,#1680);
#1700=CARTESIAN_POINT('',(15.,-9.36823860674119E-16,15.));
#1710=VERTEX_POINT('',#1700);
#1720=CARTESIAN_POINT('',(15.,-9.18454765366783E-16,-15.));
#1730=VERTEX_POINT('',#1720);
#1740=EDGE_CURVE('',#1710,#1730,#1690,.T.);
#1750=ORIENTED_EDGE('',*,*,#1740,.F.);
#1760=CARTESIAN_POINT('',(15.,0.,-15.));
#1770=DIRECTION('',(0.,1.,0.));
#1780=VECTOR('',#1770,1.);
#1790=LINE('',#1760,#1780);
#1800=EDGE_CURVE('',#1410,#1730,#1790,.T.);
#1810=ORIENTED_EDGE('',*,*,#1800,.T.);
#1820=ORIENTED_EDGE('',*,*,#1420,.F.);
#1830=ORIENTED_EDGE('',*,*,#1030,.F.);
#1840=CARTESIAN_POINT('',(15.,-4.,0.));
#1850=DIRECTION('',(0.,0.,1.));
#1860=VECTOR('',#1850,1.);
#1870=LINE('',#1840,#1860);
#1880=CARTESIAN_POINT('',(15.,-4.,15.));
#1890=VERTEX_POINT('',#1880);
#1900=EDGE_CURVE('',#1020,#1890,#1870,.T.);
#1910=ORIENTED_EDGE('',*,*,#1900,.F.);
#1920=CARTESIAN_POINT('',(15.,0.,15.));
#1930=DIRECTION('',(0.,-1.,0.));
#1940=VECTOR('',#1930,1.);
#1950=LINE('',#1920,#1940);
#1960=EDGE_CURVE('',#1710,#1890,#1950,.T.);
#1970=ORIENTED_EDGE('',*,*,#1960,.T.);
#1980=EDGE_LOOP('',(#1970,#1910,#1830,#1820,#1810,#1750));
#1990=FACE_OUTER_BOUND('',#1980,.T.);
#2000=ADVANCED_FACE('',(#1990),#1650,.F.);
#2010=CARTESIAN_POINT('',(-15.3,-4.,-11.26));
#2020=DIRECTION('',(-0.,-1.,-0.));
#2030=DIRECTION('',(-1.,0.,0.));
#2040=AXIS2_PLACEMENT_3D('',#2010,#2020,#2030);
#2050=PLANE('',#2040);
#2060=ORIENTED_EDGE('',*,*,#650,.T.);
#2070=EDGE_CURVE('',#640,#550,#620,.T.);
#2080=ORIENTED_EDGE('',*,*,#2070,.T.);
#2090=EDGE_LOOP('',(#2080,#2060));
#2100=FACE_BOUND('',#2090,.T.);
#2110=CARTESIAN_POINT('',(-15.,-4.,0.));
#2120=DIRECTION('',(0.,0.,-1.));
#2130=VECTOR('',#2120,1.);
#2140=LINE('',#2110,#2130);
#2150=CARTESIAN_POINT('',(-15.,-4.,15.));
#2160=VERTEX_POINT('',#2150);
#2170=EDGE_CURVE('',#2160,#1180,#2140,.T.);
#2180=ORIENTED_EDGE('',*,*,#2170,.T.);
#2190=CARTESIAN_POINT('',(0.,-4.,15.));
#2200=DIRECTION('',(-1.,0.,0.));
#2210=VECTOR('',#2200,1.);
#2220=LINE('',#2190,#2210);
#2230=EDGE_CURVE('',#1890,#2160,#2220,.T.);
#2240=ORIENTED_EDGE('',*,*,#2230,.T.);
#2250=ORIENTED_EDGE('',*,*,#1900,.T.);
#2260=ORIENTED_EDGE('',*,*,#1250,.T.);
#2270=EDGE_LOOP('',(#2260,#2250,#2240,#2180));
#2280=FACE_OUTER_BOUND('',#2270,.T.);
#2290=ADVANCED_FACE('',(#2100,#2280),#2050,.T.);
#2300=CARTESIAN_POINT('',(-15.3,-9.36823860674119E-16,-15.3));
#2310=DIRECTION('',(-0.,-1.,-0.));
#2320=DIRECTION('',(-1.,0.,0.));
#2330=AXIS2_PLACEMENT_3D('',#2300,#2310,#2320);
#2340=PLANE('',#2330);
#2350=EDGE_CURVE('',#530,#720,#790,.T.);
#2360=ORIENTED_EDGE('',*,*,#2350,.T.);
#2370=ORIENTED_EDGE('',*,*,#800,.T.);
#2380=EDGE_LOOP('',(#2370,#2360));
#2390=FACE_BOUND('',#2380,.T.);
#2400=CARTESIAN_POINT('',(-15.,-9.36823860674119E-16,0.));
#2410=DIRECTION('',(0.,0.,1.));
#2420=VECTOR('',#2410,1.);
#2430=LINE('',#2400,#2420);
#2440=CARTESIAN_POINT('',(-15.,-9.18454765366783E-16,-15.));
#2450=VERTEX_POINT('',#2440);
#2460=CARTESIAN_POINT('',(-15.,-9.36823860674119E-16,15.));
#2470=VERTEX_POINT('',#2460);
#2480=EDGE_CURVE('',#2450,#2470,#2430,.T.);
#2490=ORIENTED_EDGE('',*,*,#2480,.T.);
#2500=CARTESIAN_POINT('',(0.,-9.36823860674119E-16,-15.));
#2510=DIRECTION('',(-1.,0.,0.));
#2520=VECTOR('',#2510,1.);
#2530=LINE('',#2500,#2520);
#2540=EDGE_CURVE('',#1730,#2450,#2530,.T.);
#2550=ORIENTED_EDGE('',*,*,#2540,.T.);
#2560=ORIENTED_EDGE('',*,*,#1740,.T.);
#2570=CARTESIAN_POINT('',(0.,-9.36823860674119E-16,15.));
#2580=DIRECTION('',(1.,0.,0.));
#2590=VECTOR('',#2580,1.);
#2600=LINE('',#2570,#2590);
#2610=EDGE_CURVE('',#2470,#1710,#2600,.T.);
#2620=ORIENTED_EDGE('',*,*,#2610,.T.);
#2630=EDGE_LOOP('',(#2620,#2560,#2550,#2490));
#2640=FACE_OUTER_BOUND('',#2630,.T.);
#2650=ADVANCED_FACE('',(#2390,#2640),#2340,.F.);
#2660=CARTESIAN_POINT('',(-15.3,0.3,-15.));
#2670=DIRECTION('',(0.,0.,1.));
#2680=DIRECTION('',(1.,0.,0.));
#2690=AXIS2_PLACEMENT_3D('',#2660,#2670,#2680);
#2700=PLANE('',#2690);
#2710=ORIENTED_EDGE('',*,*,#230,.T.);
#2720=EDGE_CURVE('',#220,#130,#200,.T.);
#2730=ORIENTED_EDGE('',*,*,#2720,.T.);
#2740=EDGE_LOOP('',(#2730,#2710));
#2750=FACE_BOUND('',#2740,.T.);
#2760=CARTESIAN_POINT('',(-15.,0.,-15.));
#2770=DIRECTION('',(0.,1.,0.));
#2780=VECTOR('',#2770,1.);
#2790=LINE('',#2760,#2780);
#2800=EDGE_CURVE('',#1490,#2450,#2790,.T.);
#2810=ORIENTED_EDGE('',*,*,#2800,.T.);
#2820=ORIENTED_EDGE('',*,*,#1500,.T.);
#2830=ORIENTED_EDGE('',*,*,#1800,.F.);
#2840=ORIENTED_EDGE('',*,*,#2540,.F.);
#2850=EDGE_LOOP('',(#2840,#2830,#2820,#2810));
#2860=FACE_OUTER_BOUND('',#2850,.T.);
#2870=ADVANCED_FACE('',(#2750,#2860),#2700,.F.);
#2880=CARTESIAN_POINT('',(-15.,-30.3,-15.3));
#2890=DIRECTION('',(1.,0.,0.));
#2900=DIRECTION('',(0.,-1.,0.));
#2910=AXIS2_PLACEMENT_3D('',#2880,#2890,#2900);
#2920=PLANE('',#2910);
#2930=ORIENTED_EDGE('',*,*,#2170,.F.);
#2940=ORIENTED_EDGE('',*,*,#1190,.F.);
#2950=ORIENTED_EDGE('',*,*,#1560,.F.);
#2960=ORIENTED_EDGE('',*,*,#2800,.F.);
#2970=ORIENTED_EDGE('',*,*,#2480,.F.);
#2980=CARTESIAN_POINT('',(-15.,0.,15.));
#2990=DIRECTION('',(0.,1.,0.));
#3000=VECTOR('',#2990,1.);
#3010=LINE('',#2980,#3000);
#3020=EDGE_CURVE('',#2160,#2470,#3010,.T.);
#3030=ORIENTED_EDGE('',*,*,#3020,.T.);
#3040=EDGE_LOOP('',(#3030,#2970,#2960,#2950,#2940,#2930));
#3050=FACE_OUTER_BOUND('',#3040,.T.);
#3060=ADVANCED_FACE('',(#3050),#2920,.F.);
#3070=CARTESIAN_POINT('',(-15.3,-4.04,15.));
#3080=DIRECTION('',(0.,0.,-1.));
#3090=DIRECTION('',(-1.,0.,0.));
#3100=AXIS2_PLACEMENT_3D('',#3070,#3080,#3090);
#3110=PLANE('',#3100);
#3120=ORIENTED_EDGE('',*,*,#1960,.F.);
#3130=ORIENTED_EDGE('',*,*,#2230,.F.);
#3140=ORIENTED_EDGE('',*,*,#3020,.F.);
#3150=ORIENTED_EDGE('',*,*,#2610,.F.);
#3160=EDGE_LOOP('',(#3150,#3140,#3130,#3120));
#3170=FACE_OUTER_BOUND('',#3160,.T.);
#3180=ADVANCED_FACE('',(#3170),#3110,.F.);
#3190=CARTESIAN_POINT('',(-2.89970626398423E-31,-15.,-10.96));
#3200=DIRECTION('',(0.,0.,-1.));
#3210=DIRECTION('',(-1.,0.,0.));
#3220=AXIS2_PLACEMENT_3D('',#3190,#3200,#3210);
#3230=CYLINDRICAL_SURFACE('',#3220,3.3);
#3240=ORIENTED_EDGE('',*,*,#140,.T.);
#3250=ORIENTED_EDGE('',*,*,#900,.F.);
#3260=ORIENTED_EDGE('',*,*,#310,.F.);
#3270=ORIENTED_EDGE('',*,*,#2720,.F.);
#3280=EDGE_LOOP('',(#3270,#3260,#3250,#3240));
#3290=FACE_OUTER_BOUND('',#3280,.T.);
#3300=ADVANCED_FACE('',(#3290),#3230,.F.);
#3310=CARTESIAN_POINT('',(9.79190351533282E-33,0.0400000000000009,
2.02804493395501E-16));
#3320=DIRECTION('',(0.,-1.,0.));
#3330=DIRECTION('',(-1.,0.,0.));
#3340=AXIS2_PLACEMENT_3D('',#3310,#3320,#3330);
#3350=CYLINDRICAL_SURFACE('',#3340,3.3);
#3360=ORIENTED_EDGE('',*,*,#560,.T.);
#3370=ORIENTED_EDGE('',*,*,#2350,.F.);
#3380=ORIENTED_EDGE('',*,*,#730,.F.);
#3390=ORIENTED_EDGE('',*,*,#2070,.F.);
#3400=EDGE_LOOP('',(#3390,#3380,#3370,#3360));
#3410=FACE_OUTER_BOUND('',#3400,.T.);
#3420=ADVANCED_FACE('',(#3410),#3350,.F.);
#3430=CLOSED_SHELL('',(#420,#840,#1290,#1600,#2000,#2290,#2650,#2870,
#3060,#3180,#3300,#3420));
#3440=MANIFOLD_SOLID_BREP('',#3430);
#3450=CARTESIAN_POINT('',(0.,0.,0.));
#3460=DIRECTION('',(0.,0.,1.));
#3470=DIRECTION('',(1.,0.,0.));
#3480=AXIS2_PLACEMENT_3D('',#3450,#3460,#3470);
#3490=APPLICATION_CONTEXT(' ');
#3500=APPLICATION_PROTOCOL_DEFINITION(' ','automotive_design',1998,#3490
);
#3510=PRODUCT_CONTEXT('',#3490,'mechanical');
#3520=PRODUCT_DEFINITION_CONTEXT('part definition',#3490,'design');
#3530=PRODUCT('Haltewinkel-MMS-33_30x30x30x4_33.0205_PX176113',
'Haltewinkel-MMS-33_30x30x30x4_33.0205_PX176113','',(#3510));
#3540=PRODUCT_RELATED_PRODUCT_CATEGORY('part',' ',(#3530));
#3550=PRODUCT_DEFINITION_FORMATION_WITH_SPECIFIED_SOURCE('','',#3530,
.BOUGHT.);
#3560=PRODUCT_DEFINITION('',' ',#3550,#3520);
#3570=PRODUCT_DEFINITION_SHAPE('','',#3560);
#3580=DIMENSIONAL_EXPONENTS(1.,0.,0.,0.,0.,0.,0.);
#3590=DIMENSIONAL_EXPONENTS(0.,0.,0.,0.,0.,0.,0.);
#3600=DIMENSIONAL_EXPONENTS(0.,0.,0.,0.,0.,0.,0.);
#3610=(LENGTH_UNIT() NAMED_UNIT(*) SI_UNIT(.MILLI.,.METRE.));
#3620=(NAMED_UNIT(*) PLANE_ANGLE_UNIT() SI_UNIT($,.RADIAN.));
#3630=(NAMED_UNIT(*) SI_UNIT($,.STERADIAN.) SOLID_ANGLE_UNIT());
#3640=(GEOMETRIC_REPRESENTATION_CONTEXT(3) 
GLOBAL_UNCERTAINTY_ASSIGNED_CONTEXT((#3650)) 
GLOBAL_UNIT_ASSIGNED_CONTEXT((#3610,#3620,#3630)) REPRESENTATION_CONTEXT
('',''));
#3650=UNCERTAINTY_MEASURE_WITH_UNIT(LENGTH_MEASURE(1.E-6),#3610,
'distance_accuracy_value','maximum gap value');
#3660=ADVANCED_BREP_SHAPE_REPRESENTATION('',(#3480,#3440),#3640);
#3670=SHAPE_DEFINITION_REPRESENTATION(#3570,#3660);
#3680=COLOUR_RGB('',0.690196096897125,0.886274576187134,1.);
#3690=FILL_AREA_STYLE_COLOUR('',#3680);
#3700=FILL_AREA_STYLE('',(#3690));
#3710=SURFACE_STYLE_FILL_AREA(#3700);
#3720=SURFACE_SIDE_STYLE('',(#3710));
#3730=SURFACE_STYLE_USAGE(.BOTH.,#3720);
#3740=PRESENTATION_STYLE_ASSIGNMENT((#3730));
#3750=STYLED_ITEM('',(#3740),#3440);
#3760=DRAUGHTING_MODEL('',(#3750),#3640);
#3770=CARTESIAN_POINT('',(16.6,38.4,15.));
#3780=DIRECTION('',(0.,0.,1.));
#3790=DIRECTION('',(1.,0.,0.));
#3800=AXIS2_PLACEMENT_3D('',#3770,#3780,#3790);
#3810=ITEM_DEFINED_TRANSFORMATION(
'Haltewinkel-MMS-33_30x30x30x4_33.0205_PX176113','',#3480,#3800);
#3820=APPLICATION_CONTEXT(' ');
#3830=APPLICATION_PROTOCOL_DEFINITION(' ','automotive_design',1998,#3820
);
#3840=PRODUCT_CONTEXT('',#3820,'mechanical');
#3850=PRODUCT_DEFINITION_CONTEXT('part definition',#3820,'design');
#3860=PRODUCT('Haltewinkel-MMS-33_30x30x30x4_33.0205_PX176113',
'Haltewinkel-MMS-33_30x30x30x4_33.0205_PX176113','',(#3840));
#3870=PRODUCT_RELATED_PRODUCT_CATEGORY('part',' ',(#3860));
#3880=PRODUCT_DEFINITION_FORMATION_WITH_SPECIFIED_SOURCE('','',#3860,
.BOUGHT.);
#3890=PRODUCT_DEFINITION('',' ',#3880,#3850);
#3900=PRODUCT_DEFINITION_SHAPE('','',#3890);
#3910=DIMENSIONAL_EXPONENTS(1.,0.,0.,0.,0.,0.,0.);
#3920=DIMENSIONAL_EXPONENTS(0.,0.,0.,0.,0.,0.,0.);
#3930=DIMENSIONAL_EXPONENTS(0.,0.,0.,0.,0.,0.,0.);
#3940=(LENGTH_UNIT() NAMED_UNIT(*) SI_UNIT(.MILLI.,.METRE.));
#3950=(NAMED_UNIT(*) PLANE_ANGLE_UNIT() SI_UNIT($,.RADIAN.));
#3960=(NAMED_UNIT(*) SI_UNIT($,.STERADIAN.) SOLID_ANGLE_UNIT());
#3970=(GEOMETRIC_REPRESENTATION_CONTEXT(3) 
GLOBAL_UNCERTAINTY_ASSIGNED_CONTEXT((#3980)) 
GLOBAL_UNIT_ASSIGNED_CONTEXT((#3940,#3950,#3960)) REPRESENTATION_CONTEXT
('',''));
#3980=UNCERTAINTY_MEASURE_WITH_UNIT(LENGTH_MEASURE(1.E-6),#3940,
'distance_accuracy_value','maximum gap value');
#3990=SHAPE_REPRESENTATION('',(#3480,#3800),#3970);
#4000=SHAPE_DEFINITION_REPRESENTATION(#3900,#3990);
#4010=(REPRESENTATION_RELATIONSHIP('','',#3660,#3990) 
REPRESENTATION_RELATIONSHIP_WITH_TRANSFORMATION(#3810) 
SHAPE_REPRESENTATION_RELATIONSHIP());
#4020=NEXT_ASSEMBLY_USAGE_OCCURRENCE('1','',
'Haltewinkel-MMS-33_30x30x30x4_33.0205_PX176113',#3890,#3560,'');
#4030=PRODUCT_DEFINITION_SHAPE('','',#4020);
#4040=CONTEXT_DEPENDENT_SHAPE_REPRESENTATION(#4010,#4030);
ENDSEC;
END-ISO-10303-21;
