ISO-10303-21;
HEADER;
FILE_DESCRIPTION(('Creo Elements/Direct Modeling STEP Export'),'2;1');
FILE_NAME(
'//KR-CAD2/PhoenixTemp/karl.letzgus/Konvertierung/44.0205_Haltewinkel-MM
S-44_40x40x40x5.stp','2022-03-21T 8:57:49',(''),(''),
'PTC Creo Elements/Direct Modeling STEP processor for AP214 (Solid Model
)',
'PTC Creo Elements/Direct Modeling 19.0C  15-Aug-2015 (C) Parametric Tec
hnology GmbH','');
FILE_SCHEMA(('AUTOMOTIVE_DESIGN { 1 0 10303 214 1 1 1 1 }'));
ENDSEC;
DATA;
#10=CARTESIAN_POINT('',(0.,0.,0.));
#20=DIRECTION('',(0.,0.,1.));
#30=DIRECTION('',(1.,0.,0.));
#40=AXIS2_PLACEMENT_3D('',#10,#20,#30);
#50=PLANE('',#40);
#60=CARTESIAN_POINT('',(0.,40.,0.));
#70=DIRECTION('',(0.,-1.,0.));
#80=VECTOR('',#70,1.);
#90=LINE('',#60,#80);
#100=CARTESIAN_POINT('',(0.,40.,0.));
#110=VERTEX_POINT('',#100);
#120=CARTESIAN_POINT('',(0.,0.,0.));
#130=VERTEX_POINT('',#120);
#140=EDGE_CURVE('',#110,#130,#90,.T.);
#150=ORIENTED_EDGE('',*,*,#140,.F.);
#160=CARTESIAN_POINT('',(0.,0.,0.));
#170=DIRECTION('',(1.,0.,0.));
#180=VECTOR('',#170,1.);
#190=LINE('',#160,#180);
#200=CARTESIAN_POINT('',(40.,0.,0.));
#210=VERTEX_POINT('',#200);
#220=EDGE_CURVE('',#130,#210,#190,.T.);
#230=ORIENTED_EDGE('',*,*,#220,.F.);
#240=CARTESIAN_POINT('',(40.,0.,0.));
#250=DIRECTION('',(0.,1.,0.));
#260=VECTOR('',#250,1.);
#270=LINE('',#240,#260);
#280=CARTESIAN_POINT('',(40.,40.,0.));
#290=VERTEX_POINT('',#280);
#300=EDGE_CURVE('',#210,#290,#270,.T.);
#310=ORIENTED_EDGE('',*,*,#300,.F.);
#320=CARTESIAN_POINT('',(40.,40.,0.));
#330=DIRECTION('',(-1.,0.,0.));
#340=VECTOR('',#330,1.);
#350=LINE('',#320,#340);
#360=EDGE_CURVE('',#290,#110,#350,.T.);
#370=ORIENTED_EDGE('',*,*,#360,.F.);
#380=EDGE_LOOP('',(#370,#310,#230,#150));
#390=FACE_OUTER_BOUND('',#380,.T.);
#400=CARTESIAN_POINT('',(20.,20.,0.));
#410=DIRECTION('',(0.,0.,-1.));
#420=DIRECTION('',(1.,0.,0.));
#430=AXIS2_PLACEMENT_3D('',#400,#410,#420);
#440=CIRCLE('',#430,4.5);
#450=CARTESIAN_POINT('',(24.5,20.,0.));
#460=VERTEX_POINT('',#450);
#470=CARTESIAN_POINT('',(15.5,20.,0.));
#480=VERTEX_POINT('',#470);
#490=EDGE_CURVE('',#460,#480,#440,.T.);
#500=ORIENTED_EDGE('',*,*,#490,.F.);
#510=EDGE_CURVE('',#480,#460,#440,.T.);
#520=ORIENTED_EDGE('',*,*,#510,.F.);
#530=EDGE_LOOP('',(#520,#500));
#540=FACE_BOUND('',#530,.T.);
#550=ADVANCED_FACE('',(#390,#540),#50,.F.);
#560=CARTESIAN_POINT('',(0.,0.,5.));
#570=DIRECTION('',(0.,0.,1.));
#580=DIRECTION('',(1.,0.,0.));
#590=AXIS2_PLACEMENT_3D('',#560,#570,#580);
#600=PLANE('',#590);
#610=CARTESIAN_POINT('',(0.,40.,5.));
#620=DIRECTION('',(0.,-1.,0.));
#630=VECTOR('',#620,1.);
#640=LINE('',#610,#630);
#650=CARTESIAN_POINT('',(0.,40.,5.));
#660=VERTEX_POINT('',#650);
#670=CARTESIAN_POINT('',(0.,5.,5.));
#680=VERTEX_POINT('',#670);
#690=EDGE_CURVE('',#660,#680,#640,.T.);
#700=ORIENTED_EDGE('',*,*,#690,.T.);
#710=CARTESIAN_POINT('',(40.,40.,5.));
#720=DIRECTION('',(-1.,0.,0.));
#730=VECTOR('',#720,1.);
#740=LINE('',#710,#730);
#750=CARTESIAN_POINT('',(40.,40.,5.));
#760=VERTEX_POINT('',#750);
#770=EDGE_CURVE('',#760,#660,#740,.T.);
#780=ORIENTED_EDGE('',*,*,#770,.T.);
#790=CARTESIAN_POINT('',(40.,0.,5.));
#800=DIRECTION('',(0.,1.,0.));
#810=VECTOR('',#800,1.);
#820=LINE('',#790,#810);
#830=CARTESIAN_POINT('',(40.,5.,5.));
#840=VERTEX_POINT('',#830);
#850=EDGE_CURVE('',#840,#760,#820,.T.);
#860=ORIENTED_EDGE('',*,*,#850,.T.);
#870=CARTESIAN_POINT('',(0.,5.,5.));
#880=DIRECTION('',(-1.,0.,0.));
#890=VECTOR('',#880,1.);
#900=LINE('',#870,#890);
#910=EDGE_CURVE('',#840,#680,#900,.T.);
#920=ORIENTED_EDGE('',*,*,#910,.F.);
#930=EDGE_LOOP('',(#920,#860,#780,#700));
#940=FACE_OUTER_BOUND('',#930,.T.);
#950=CARTESIAN_POINT('',(20.,20.,5.));
#960=DIRECTION('',(0.,0.,-1.));
#970=DIRECTION('',(1.,0.,0.));
#980=AXIS2_PLACEMENT_3D('',#950,#960,#970);
#990=CIRCLE('',#980,4.5);
#1000=CARTESIAN_POINT('',(24.5,20.,5.));
#1010=VERTEX_POINT('',#1000);
#1020=CARTESIAN_POINT('',(15.5,20.,5.));
#1030=VERTEX_POINT('',#1020);
#1040=EDGE_CURVE('',#1010,#1030,#990,.T.);
#1050=ORIENTED_EDGE('',*,*,#1040,.T.);
#1060=EDGE_CURVE('',#1030,#1010,#990,.T.);
#1070=ORIENTED_EDGE('',*,*,#1060,.T.);
#1080=EDGE_LOOP('',(#1070,#1050));
#1090=FACE_BOUND('',#1080,.T.);
#1100=ADVANCED_FACE('',(#940,#1090),#600,.T.);
#1110=CARTESIAN_POINT('',(40.,0.,5.));
#1120=DIRECTION('',(-0.,-1.,-0.));
#1130=DIRECTION('',(-1.,0.,0.));
#1140=AXIS2_PLACEMENT_3D('',#1110,#1120,#1130);
#1150=PLANE('',#1140);
#1160=ORIENTED_EDGE('',*,*,#220,.T.);
#1170=CARTESIAN_POINT('',(0.,0.,5.));
#1180=DIRECTION('',(0.,0.,1.));
#1190=VECTOR('',#1180,1.);
#1200=LINE('',#1170,#1190);
#1210=CARTESIAN_POINT('',(0.,0.,40.));
#1220=VERTEX_POINT('',#1210);
#1230=EDGE_CURVE('',#130,#1220,#1200,.T.);
#1240=ORIENTED_EDGE('',*,*,#1230,.F.);
#1250=CARTESIAN_POINT('',(0.,0.,40.));
#1260=DIRECTION('',(1.,0.,0.));
#1270=VECTOR('',#1260,1.);
#1280=LINE('',#1250,#1270);
#1290=CARTESIAN_POINT('',(40.,0.,40.));
#1300=VERTEX_POINT('',#1290);
#1310=EDGE_CURVE('',#1220,#1300,#1280,.T.);
#1320=ORIENTED_EDGE('',*,*,#1310,.F.);
#1330=CARTESIAN_POINT('',(40.,0.,0.));
#1340=DIRECTION('',(0.,0.,1.));
#1350=VECTOR('',#1340,1.);
#1360=LINE('',#1330,#1350);
#1370=EDGE_CURVE('',#210,#1300,#1360,.T.);
#1380=ORIENTED_EDGE('',*,*,#1370,.T.);
#1390=EDGE_LOOP('',(#1380,#1320,#1240,#1160));
#1400=FACE_OUTER_BOUND('',#1390,.T.);
#1410=CARTESIAN_POINT('',(20.,0.,20.));
#1420=DIRECTION('',(0.,-1.,0.));
#1430=DIRECTION('',(1.,0.,0.));
#1440=AXIS2_PLACEMENT_3D('',#1410,#1420,#1430);
#1450=CIRCLE('',#1440,4.5);
#1460=CARTESIAN_POINT('',(24.5,0.,20.));
#1470=VERTEX_POINT('',#1460);
#1480=CARTESIAN_POINT('',(15.5,0.,20.));
#1490=VERTEX_POINT('',#1480);
#1500=EDGE_CURVE('',#1470,#1490,#1450,.T.);
#1510=ORIENTED_EDGE('',*,*,#1500,.F.);
#1520=EDGE_CURVE('',#1490,#1470,#1450,.T.);
#1530=ORIENTED_EDGE('',*,*,#1520,.F.);
#1540=EDGE_LOOP('',(#1530,#1510));
#1550=FACE_BOUND('',#1540,.T.);
#1560=ADVANCED_FACE('',(#1400,#1550),#1150,.T.);
#1570=CARTESIAN_POINT('',(40.,5.,5.));
#1580=DIRECTION('',(1.,0.,0.));
#1590=DIRECTION('',(0.,-1.,0.));
#1600=AXIS2_PLACEMENT_3D('',#1570,#1580,#1590);
#1610=PLANE('',#1600);
#1620=ORIENTED_EDGE('',*,*,#850,.F.);
#1630=CARTESIAN_POINT('',(40.,40.,0.));
#1640=DIRECTION('',(0.,0.,1.));
#1650=VECTOR('',#1640,1.);
#1660=LINE('',#1630,#1650);
#1670=EDGE_CURVE('',#290,#760,#1660,.T.);
#1680=ORIENTED_EDGE('',*,*,#1670,.T.);
#1690=ORIENTED_EDGE('',*,*,#300,.T.);
#1700=ORIENTED_EDGE('',*,*,#1370,.F.);
#1710=CARTESIAN_POINT('',(40.,0.,40.));
#1720=DIRECTION('',(0.,1.,0.));
#1730=VECTOR('',#1720,1.);
#1740=LINE('',#1710,#1730);
#1750=CARTESIAN_POINT('',(40.,5.,40.));
#1760=VERTEX_POINT('',#1750);
#1770=EDGE_CURVE('',#1300,#1760,#1740,.T.);
#1780=ORIENTED_EDGE('',*,*,#1770,.F.);
#1790=CARTESIAN_POINT('',(40.,5.,5.));
#1800=DIRECTION('',(0.,0.,1.));
#1810=VECTOR('',#1800,1.);
#1820=LINE('',#1790,#1810);
#1830=EDGE_CURVE('',#840,#1760,#1820,.T.);
#1840=ORIENTED_EDGE('',*,*,#1830,.T.);
#1850=EDGE_LOOP('',(#1840,#1780,#1700,#1690,#1680,#1620));
#1860=FACE_OUTER_BOUND('',#1850,.T.);
#1870=ADVANCED_FACE('',(#1860),#1610,.T.);
#1880=CARTESIAN_POINT('',(0.,0.,5.));
#1890=DIRECTION('',(-1.,0.,0.));
#1900=DIRECTION('',(0.,1.,0.));
#1910=AXIS2_PLACEMENT_3D('',#1880,#1890,#1900);
#1920=PLANE('',#1910);
#1930=ORIENTED_EDGE('',*,*,#140,.T.);
#1940=CARTESIAN_POINT('',(0.,40.,0.));
#1950=DIRECTION('',(0.,0.,1.));
#1960=VECTOR('',#1950,1.);
#1970=LINE('',#1940,#1960);
#1980=EDGE_CURVE('',#110,#660,#1970,.T.);
#1990=ORIENTED_EDGE('',*,*,#1980,.F.);
#2000=ORIENTED_EDGE('',*,*,#690,.F.);
#2010=CARTESIAN_POINT('',(0.,5.,5.));
#2020=DIRECTION('',(0.,0.,1.));
#2030=VECTOR('',#2020,1.);
#2040=LINE('',#2010,#2030);
#2050=CARTESIAN_POINT('',(0.,5.,40.));
#2060=VERTEX_POINT('',#2050);
#2070=EDGE_CURVE('',#680,#2060,#2040,.T.);
#2080=ORIENTED_EDGE('',*,*,#2070,.F.);
#2090=CARTESIAN_POINT('',(0.,5.,40.));
#2100=DIRECTION('',(0.,-1.,0.));
#2110=VECTOR('',#2100,1.);
#2120=LINE('',#2090,#2110);
#2130=EDGE_CURVE('',#2060,#1220,#2120,.T.);
#2140=ORIENTED_EDGE('',*,*,#2130,.F.);
#2150=ORIENTED_EDGE('',*,*,#1230,.T.);
#2160=EDGE_LOOP('',(#2150,#2140,#2080,#2000,#1990,#1930));
#2170=FACE_OUTER_BOUND('',#2160,.T.);
#2180=ADVANCED_FACE('',(#2170),#1920,.T.);
#2190=CARTESIAN_POINT('',(0.,40.,0.));
#2200=DIRECTION('',(-0.,1.,0.));
#2210=DIRECTION('',(1.,0.,0.));
#2220=AXIS2_PLACEMENT_3D('',#2190,#2200,#2210);
#2230=PLANE('',#2220);
#2240=ORIENTED_EDGE('',*,*,#1670,.F.);
#2250=ORIENTED_EDGE('',*,*,#770,.F.);
#2260=ORIENTED_EDGE('',*,*,#1980,.T.);
#2270=ORIENTED_EDGE('',*,*,#360,.T.);
#2280=EDGE_LOOP('',(#2270,#2260,#2250,#2240));
#2290=FACE_OUTER_BOUND('',#2280,.T.);
#2300=ADVANCED_FACE('',(#2290),#2230,.T.);
#2310=CARTESIAN_POINT('',(0.,5.,5.));
#2320=DIRECTION('',(-0.,1.,0.));
#2330=DIRECTION('',(1.,0.,0.));
#2340=AXIS2_PLACEMENT_3D('',#2310,#2320,#2330);
#2350=PLANE('',#2340);
#2360=ORIENTED_EDGE('',*,*,#1830,.F.);
#2370=CARTESIAN_POINT('',(40.,5.,40.));
#2380=DIRECTION('',(-1.,0.,0.));
#2390=VECTOR('',#2380,1.);
#2400=LINE('',#2370,#2390);
#2410=EDGE_CURVE('',#1760,#2060,#2400,.T.);
#2420=ORIENTED_EDGE('',*,*,#2410,.F.);
#2430=ORIENTED_EDGE('',*,*,#2070,.T.);
#2440=ORIENTED_EDGE('',*,*,#910,.T.);
#2450=EDGE_LOOP('',(#2440,#2430,#2420,#2360));
#2460=FACE_OUTER_BOUND('',#2450,.T.);
#2470=CARTESIAN_POINT('',(20.,5.,20.));
#2480=DIRECTION('',(0.,-1.,0.));
#2490=DIRECTION('',(1.,0.,0.));
#2500=AXIS2_PLACEMENT_3D('',#2470,#2480,#2490);
#2510=CIRCLE('',#2500,4.5);
#2520=CARTESIAN_POINT('',(24.5,5.,20.));
#2530=VERTEX_POINT('',#2520);
#2540=CARTESIAN_POINT('',(15.5,5.,20.));
#2550=VERTEX_POINT('',#2540);
#2560=EDGE_CURVE('',#2530,#2550,#2510,.T.);
#2570=ORIENTED_EDGE('',*,*,#2560,.T.);
#2580=EDGE_CURVE('',#2550,#2530,#2510,.T.);
#2590=ORIENTED_EDGE('',*,*,#2580,.T.);
#2600=EDGE_LOOP('',(#2590,#2570));
#2610=FACE_BOUND('',#2600,.T.);
#2620=ADVANCED_FACE('',(#2460,#2610),#2350,.T.);
#2630=CARTESIAN_POINT('',(20.,20.,40.));
#2640=DIRECTION('',(0.,0.,1.));
#2650=DIRECTION('',(1.,0.,0.));
#2660=AXIS2_PLACEMENT_3D('',#2630,#2640,#2650);
#2670=PLANE('',#2660);
#2680=ORIENTED_EDGE('',*,*,#2130,.T.);
#2690=ORIENTED_EDGE('',*,*,#2410,.T.);
#2700=ORIENTED_EDGE('',*,*,#1770,.T.);
#2710=ORIENTED_EDGE('',*,*,#1310,.T.);
#2720=EDGE_LOOP('',(#2710,#2700,#2690,#2680));
#2730=FACE_OUTER_BOUND('',#2720,.T.);
#2740=ADVANCED_FACE('',(#2730),#2670,.T.);
#2750=CARTESIAN_POINT('',(20.,20.,450.));
#2760=DIRECTION('',(0.,0.,-1.));
#2770=DIRECTION('',(1.,0.,0.));
#2780=AXIS2_PLACEMENT_3D('',#2750,#2760,#2770);
#2790=CYLINDRICAL_SURFACE('',#2780,4.5);
#2800=CARTESIAN_POINT('',(24.5,20.,450.));
#2810=DIRECTION('',(0.,0.,-1.));
#2820=VECTOR('',#2810,1.);
#2830=LINE('',#2800,#2820);
#2840=EDGE_CURVE('',#1010,#460,#2830,.T.);
#2850=ORIENTED_EDGE('',*,*,#2840,.F.);
#2860=ORIENTED_EDGE('',*,*,#510,.T.);
#2870=CARTESIAN_POINT('',(15.5,20.,450.));
#2880=DIRECTION('',(0.,0.,-1.));
#2890=VECTOR('',#2880,1.);
#2900=LINE('',#2870,#2890);
#2910=EDGE_CURVE('',#1030,#480,#2900,.T.);
#2920=ORIENTED_EDGE('',*,*,#2910,.T.);
#2930=ORIENTED_EDGE('',*,*,#1060,.F.);
#2940=EDGE_LOOP('',(#2930,#2920,#2860,#2850));
#2950=FACE_OUTER_BOUND('',#2940,.T.);
#2960=ADVANCED_FACE('',(#2950),#2790,.F.);
#2970=CARTESIAN_POINT('',(20.,450.,20.));
#2980=DIRECTION('',(0.,-1.,0.));
#2990=DIRECTION('',(1.,0.,0.));
#3000=AXIS2_PLACEMENT_3D('',#2970,#2980,#2990);
#3010=CYLINDRICAL_SURFACE('',#3000,4.5);
#3020=CARTESIAN_POINT('',(24.5,450.,20.));
#3030=DIRECTION('',(0.,-1.,0.));
#3040=VECTOR('',#3030,1.);
#3050=LINE('',#3020,#3040);
#3060=EDGE_CURVE('',#2530,#1470,#3050,.T.);
#3070=ORIENTED_EDGE('',*,*,#3060,.F.);
#3080=ORIENTED_EDGE('',*,*,#1520,.T.);
#3090=CARTESIAN_POINT('',(15.5,450.,20.));
#3100=DIRECTION('',(0.,-1.,0.));
#3110=VECTOR('',#3100,1.);
#3120=LINE('',#3090,#3110);
#3130=EDGE_CURVE('',#2550,#1490,#3120,.T.);
#3140=ORIENTED_EDGE('',*,*,#3130,.T.);
#3150=ORIENTED_EDGE('',*,*,#2580,.F.);
#3160=EDGE_LOOP('',(#3150,#3140,#3080,#3070));
#3170=FACE_OUTER_BOUND('',#3160,.T.);
#3180=ADVANCED_FACE('',(#3170),#3010,.F.);
#3190=CARTESIAN_POINT('',(20.,450.,20.));
#3200=DIRECTION('',(0.,-1.,0.));
#3210=DIRECTION('',(1.,0.,0.));
#3220=AXIS2_PLACEMENT_3D('',#3190,#3200,#3210);
#3230=CYLINDRICAL_SURFACE('',#3220,4.5);
#3240=ORIENTED_EDGE('',*,*,#2560,.F.);
#3250=ORIENTED_EDGE('',*,*,#3130,.F.);
#3260=ORIENTED_EDGE('',*,*,#1500,.T.);
#3270=ORIENTED_EDGE('',*,*,#3060,.T.);
#3280=EDGE_LOOP('',(#3270,#3260,#3250,#3240));
#3290=FACE_OUTER_BOUND('',#3280,.T.);
#3300=ADVANCED_FACE('',(#3290),#3230,.F.);
#3310=CARTESIAN_POINT('',(20.,20.,450.));
#3320=DIRECTION('',(0.,0.,-1.));
#3330=DIRECTION('',(1.,0.,0.));
#3340=AXIS2_PLACEMENT_3D('',#3310,#3320,#3330);
#3350=CYLINDRICAL_SURFACE('',#3340,4.5);
#3360=ORIENTED_EDGE('',*,*,#1040,.F.);
#3370=ORIENTED_EDGE('',*,*,#2910,.F.);
#3380=ORIENTED_EDGE('',*,*,#490,.T.);
#3390=ORIENTED_EDGE('',*,*,#2840,.T.);
#3400=EDGE_LOOP('',(#3390,#3380,#3370,#3360));
#3410=FACE_OUTER_BOUND('',#3400,.T.);
#3420=ADVANCED_FACE('',(#3410),#3350,.F.);
#3430=CLOSED_SHELL('',(#1560,#1870,#2180,#2300,#2620,#2740,#2960,#3180,
#3300,#3420,#1100,#550));
#3440=MANIFOLD_SOLID_BREP('',#3430);
#3450=CARTESIAN_POINT('',(0.,0.,0.));
#3460=DIRECTION('',(0.,0.,1.));
#3470=DIRECTION('',(1.,0.,0.));
#3480=AXIS2_PLACEMENT_3D('',#3450,#3460,#3470);
#3490=APPLICATION_CONTEXT(' ');
#3500=APPLICATION_PROTOCOL_DEFINITION(' ','automotive_design',1998,#3490
);
#3510=PRODUCT_CONTEXT('',#3490,'mechanical');
#3520=PRODUCT_DEFINITION_CONTEXT('part definition',#3490,'design');
#3530=PRODUCT('Haltewinkel-MMS-44_40x40x40x5_44.0205_PX173446',
'Haltewinkel-MMS-44_40x40x40x5_44.0205_PX173446','',(#3510));
#3540=PRODUCT_RELATED_PRODUCT_CATEGORY('part',' ',(#3530));
#3550=PRODUCT_DEFINITION_FORMATION_WITH_SPECIFIED_SOURCE('','',#3530,
.BOUGHT.);
#3560=PRODUCT_DEFINITION('',' ',#3550,#3520);
#3570=PRODUCT_DEFINITION_SHAPE('','',#3560);
#3580=DIMENSIONAL_EXPONENTS(1.,0.,0.,0.,0.,0.,0.);
#3590=DIMENSIONAL_EXPONENTS(0.,0.,0.,0.,0.,0.,0.);
#3600=DIMENSIONAL_EXPONENTS(0.,0.,0.,0.,0.,0.,0.);
#3610=(LENGTH_UNIT() NAMED_UNIT(*) SI_UNIT(.MILLI.,.METRE.));
#3620=(NAMED_UNIT(*) PLANE_ANGLE_UNIT() SI_UNIT($,.RADIAN.));
#3630=(NAMED_UNIT(*) SI_UNIT($,.STERADIAN.) SOLID_ANGLE_UNIT());
#3640=(GEOMETRIC_REPRESENTATION_CONTEXT(3) 
GLOBAL_UNCERTAINTY_ASSIGNED_CONTEXT((#3650)) 
GLOBAL_UNIT_ASSIGNED_CONTEXT((#3610,#3620,#3630)) REPRESENTATION_CONTEXT
('',''));
#3650=UNCERTAINTY_MEASURE_WITH_UNIT(LENGTH_MEASURE(1.E-6),#3610,
'distance_accuracy_value','maximum gap value');
#3660=ADVANCED_BREP_SHAPE_REPRESENTATION('',(#3480,#3440),#3640);
#3670=SHAPE_DEFINITION_REPRESENTATION(#3570,#3660);
#3680=COLOUR_RGB('',0.690196096897125,0.886274576187134,1.);
#3690=FILL_AREA_STYLE_COLOUR('',#3680);
#3700=FILL_AREA_STYLE('',(#3690));
#3710=SURFACE_STYLE_FILL_AREA(#3700);
#3720=SURFACE_SIDE_STYLE('',(#3710));
#3730=SURFACE_STYLE_USAGE(.BOTH.,#3720);
#3740=PRESENTATION_STYLE_ASSIGNMENT((#3730));
#3750=STYLED_ITEM('',(#3740),#3440);
#3760=DRAUGHTING_MODEL('',(#3750),#3640);
#3770=CARTESIAN_POINT('',(0.,0.,-5.));
#3780=DIRECTION('',(0.,0.,1.));
#3790=DIRECTION('',(1.,0.,0.));
#3800=AXIS2_PLACEMENT_3D('',#3770,#3780,#3790);
#3810=ITEM_DEFINED_TRANSFORMATION(
'Haltewinkel-MMS-44_40x40x40x5_44.0205_PX173446','',#3480,#3800);
#3820=APPLICATION_CONTEXT(' ');
#3830=APPLICATION_PROTOCOL_DEFINITION(' ','automotive_design',1998,#3820
);
#3840=PRODUCT_CONTEXT('',#3820,'mechanical');
#3850=PRODUCT_DEFINITION_CONTEXT('part definition',#3820,'design');
#3860=PRODUCT('Haltewinkel-MMS-44_40x40x40x5_44.0205_PX173446',
'Haltewinkel-MMS-44_40x40x40x5_44.0205_PX173446','',(#3840));
#3870=PRODUCT_RELATED_PRODUCT_CATEGORY('part',' ',(#3860));
#3880=PRODUCT_DEFINITION_FORMATION_WITH_SPECIFIED_SOURCE('','',#3860,
.BOUGHT.);
#3890=PRODUCT_DEFINITION('',' ',#3880,#3850);
#3900=PRODUCT_DEFINITION_SHAPE('','',#3890);
#3910=DIMENSIONAL_EXPONENTS(1.,0.,0.,0.,0.,0.,0.);
#3920=DIMENSIONAL_EXPONENTS(0.,0.,0.,0.,0.,0.,0.);
#3930=DIMENSIONAL_EXPONENTS(0.,0.,0.,0.,0.,0.,0.);
#3940=(LENGTH_UNIT() NAMED_UNIT(*) SI_UNIT(.MILLI.,.METRE.));
#3950=(NAMED_UNIT(*) PLANE_ANGLE_UNIT() SI_UNIT($,.RADIAN.));
#3960=(NAMED_UNIT(*) SI_UNIT($,.STERADIAN.) SOLID_ANGLE_UNIT());
#3970=(GEOMETRIC_REPRESENTATION_CONTEXT(3) 
GLOBAL_UNCERTAINTY_ASSIGNED_CONTEXT((#3980)) 
GLOBAL_UNIT_ASSIGNED_CONTEXT((#3940,#3950,#3960)) REPRESENTATION_CONTEXT
('',''));
#3980=UNCERTAINTY_MEASURE_WITH_UNIT(LENGTH_MEASURE(1.E-6),#3940,
'distance_accuracy_value','maximum gap value');
#3990=SHAPE_REPRESENTATION('',(#3480,#3800),#3970);
#4000=SHAPE_DEFINITION_REPRESENTATION(#3900,#3990);
#4010=(REPRESENTATION_RELATIONSHIP('','',#3660,#3990) 
REPRESENTATION_RELATIONSHIP_WITH_TRANSFORMATION(#3810) 
SHAPE_REPRESENTATION_RELATIONSHIP());
#4020=NEXT_ASSEMBLY_USAGE_OCCURRENCE('1','',
'Haltewinkel-MMS-44_40x40x40x5_44.0205_PX173446',#3890,#3560,'');
#4030=PRODUCT_DEFINITION_SHAPE('','',#4020);
#4040=CONTEXT_DEPENDENT_SHAPE_REPRESENTATION(#4010,#4030);
ENDSEC;
END-ISO-10303-21;
