ISO-10303-21;
HEADER;
FILE_DESCRIPTION(('Creo Elements/Direct Modeling STEP Export'),'2;1');
FILE_NAME(
'//KR-CAD2/PhoenixTemp/karl.letzgus/Konvertierung/44.0310_Abdeckkappe-MM
S-44_40x40x20-Vollkern.stp','2022-03-21T 8:55:11',(''),(''),
'PTC Creo Elements/Direct Modeling STEP processor for AP214 (Solid Model
)',
'PTC Creo Elements/Direct Modeling 19.0C  15-Aug-2015 (C) Parametric Tec
hnology GmbH','');
FILE_SCHEMA(('AUTOMOTIVE_DESIGN { 1 0 10303 214 1 1 1 1 }'));
ENDSEC;
DATA;
#10=CARTESIAN_POINT('',(0.,0.,0.));
#20=DIRECTION('',(0.,0.,1.));
#30=DIRECTION('',(1.,0.,0.));
#40=AXIS2_PLACEMENT_3D('',#10,#20,#30);
#50=PLANE('',#40);
#60=CARTESIAN_POINT('',(0.,38.5,0.));
#70=DIRECTION('',(-1.,0.,0.));
#80=VECTOR('',#70,1.);
#90=LINE('',#60,#80);
#100=CARTESIAN_POINT('',(38.5,38.5,0.));
#110=VERTEX_POINT('',#100);
#120=CARTESIAN_POINT('',(1.5,38.5,0.));
#130=VERTEX_POINT('',#120);
#140=EDGE_CURVE('',#110,#130,#90,.T.);
#150=ORIENTED_EDGE('',*,*,#140,.F.);
#160=CARTESIAN_POINT('',(1.5,0.,0.));
#170=DIRECTION('',(0.,-1.,0.));
#180=VECTOR('',#170,1.);
#190=LINE('',#160,#180);
#200=CARTESIAN_POINT('',(1.5,1.5,0.));
#210=VERTEX_POINT('',#200);
#220=EDGE_CURVE('',#130,#210,#190,.T.);
#230=ORIENTED_EDGE('',*,*,#220,.F.);
#240=CARTESIAN_POINT('',(0.,1.5,0.));
#250=DIRECTION('',(1.,0.,0.));
#260=VECTOR('',#250,1.);
#270=LINE('',#240,#260);
#280=CARTESIAN_POINT('',(38.5,1.5,0.));
#290=VERTEX_POINT('',#280);
#300=EDGE_CURVE('',#210,#290,#270,.T.);
#310=ORIENTED_EDGE('',*,*,#300,.F.);
#320=CARTESIAN_POINT('',(38.5,0.,0.));
#330=DIRECTION('',(0.,1.,0.));
#340=VECTOR('',#330,1.);
#350=LINE('',#320,#340);
#360=EDGE_CURVE('',#290,#110,#350,.T.);
#370=ORIENTED_EDGE('',*,*,#360,.F.);
#380=EDGE_LOOP('',(#370,#310,#230,#150));
#390=FACE_OUTER_BOUND('',#380,.T.);
#400=ADVANCED_FACE('',(#390),#50,.F.);
#410=CARTESIAN_POINT('',(0.,38.5,1.5));
#420=DIRECTION('',(-1.,0.,0.));
#430=DIRECTION('',(0.,1.,0.));
#440=AXIS2_PLACEMENT_3D('',#410,#420,#430);
#450=CYLINDRICAL_SURFACE('',#440,1.5);
#460=CARTESIAN_POINT('',(38.5,38.5,1.5));
#470=DIRECTION('',(-0.707106781186548,0.707106781186548,0.));
#480=DIRECTION('',(0.707106781186548,0.707106781186548,0.));
#490=AXIS2_PLACEMENT_3D('',#460,#470,#480);
#500=ELLIPSE('',#490,2.12132034355964,1.5);
#510=CARTESIAN_POINT('',(39.5606601717798,39.5606601717798,
0.439339828220179));
#520=VERTEX_POINT('',#510);
#530=EDGE_CURVE('',#520,#110,#500,.T.);
#540=ORIENTED_EDGE('',*,*,#530,.T.);
#550=CARTESIAN_POINT('',(38.5,38.5,1.5));
#560=DIRECTION('',(0.707106781186548,0.,0.707106781186548));
#570=DIRECTION('',(-0.707106781186548,0.,0.707106781186548));
#580=AXIS2_PLACEMENT_3D('',#550,#560,#570);
#590=ELLIPSE('',#580,2.12132034355964,1.5);
#600=CARTESIAN_POINT('',(38.5,40.,1.5));
#610=VERTEX_POINT('',#600);
#620=EDGE_CURVE('',#520,#610,#590,.T.);
#630=ORIENTED_EDGE('',*,*,#620,.F.);
#640=CARTESIAN_POINT('',(0.,40.,1.5));
#650=DIRECTION('',(-1.,0.,0.));
#660=VECTOR('',#650,1.);
#670=LINE('',#640,#660);
#680=CARTESIAN_POINT('',(1.5,40.,1.5));
#690=VERTEX_POINT('',#680);
#700=EDGE_CURVE('',#610,#690,#670,.T.);
#710=ORIENTED_EDGE('',*,*,#700,.F.);
#720=CARTESIAN_POINT('',(1.5,38.5,1.5));
#730=DIRECTION('',(0.707106781186548,0.,-0.707106781186548));
#740=DIRECTION('',(-0.707106781186548,0.,-0.707106781186548));
#750=AXIS2_PLACEMENT_3D('',#720,#730,#740);
#760=ELLIPSE('',#750,2.12132034355964,1.5);
#770=CARTESIAN_POINT('',(0.439339828220179,39.5606601717798,
0.439339828220179));
#780=VERTEX_POINT('',#770);
#790=EDGE_CURVE('',#780,#690,#760,.T.);
#800=ORIENTED_EDGE('',*,*,#790,.T.);
#810=CARTESIAN_POINT('',(1.5,38.5,1.5));
#820=DIRECTION('',(-0.707106781186548,-0.707106781186548,0.));
#830=DIRECTION('',(0.707106781186548,-0.707106781186548,0.));
#840=AXIS2_PLACEMENT_3D('',#810,#820,#830);
#850=ELLIPSE('',#840,2.12132034355964,1.5);
#860=EDGE_CURVE('',#780,#130,#850,.T.);
#870=ORIENTED_EDGE('',*,*,#860,.F.);
#880=ORIENTED_EDGE('',*,*,#140,.T.);
#890=EDGE_LOOP('',(#880,#870,#800,#710,#630,#540));
#900=FACE_OUTER_BOUND('',#890,.T.);
#910=ADVANCED_FACE('',(#900),#450,.T.);
#920=CARTESIAN_POINT('',(1.5,0.,1.5));
#930=DIRECTION('',(0.,-1.,0.));
#940=DIRECTION('',(-1.,0.,0.));
#950=AXIS2_PLACEMENT_3D('',#920,#930,#940);
#960=CYLINDRICAL_SURFACE('',#950,1.5);
#970=ORIENTED_EDGE('',*,*,#860,.T.);
#980=CARTESIAN_POINT('',(1.5,38.5,1.5));
#990=DIRECTION('',(0.,-0.707106781186548,-0.707106781186548));
#1000=DIRECTION('',(0.,0.707106781186548,-0.707106781186548));
#1010=AXIS2_PLACEMENT_3D('',#980,#990,#1000);
#1020=ELLIPSE('',#1010,2.12132034355964,1.5);
#1030=CARTESIAN_POINT('',(0.,38.5,1.5));
#1040=VERTEX_POINT('',#1030);
#1050=EDGE_CURVE('',#1040,#780,#1020,.T.);
#1060=ORIENTED_EDGE('',*,*,#1050,.T.);
#1070=CARTESIAN_POINT('',(0.,0.,1.5));
#1080=DIRECTION('',(0.,-1.,0.));
#1090=VECTOR('',#1080,1.);
#1100=LINE('',#1070,#1090);
#1110=CARTESIAN_POINT('',(0.,1.5,1.5));
#1120=VERTEX_POINT('',#1110);
#1130=EDGE_CURVE('',#1040,#1120,#1100,.T.);
#1140=ORIENTED_EDGE('',*,*,#1130,.F.);
#1150=CARTESIAN_POINT('',(1.5,1.5,1.5));
#1160=DIRECTION('',(0.,-0.707106781186548,0.707106781186548));
#1170=DIRECTION('',(0.,0.707106781186548,0.707106781186548));
#1180=AXIS2_PLACEMENT_3D('',#1150,#1160,#1170);
#1190=ELLIPSE('',#1180,2.12132034355964,1.5);
#1200=CARTESIAN_POINT('',(0.439339828220179,0.439339828220178,
0.439339828220178));
#1210=VERTEX_POINT('',#1200);
#1220=EDGE_CURVE('',#1120,#1210,#1190,.T.);
#1230=ORIENTED_EDGE('',*,*,#1220,.F.);
#1240=CARTESIAN_POINT('',(1.5,1.5,1.5));
#1250=DIRECTION('',(0.707106781186548,-0.707106781186548,0.));
#1260=DIRECTION('',(0.707106781186548,0.707106781186548,0.));
#1270=AXIS2_PLACEMENT_3D('',#1240,#1250,#1260);
#1280=ELLIPSE('',#1270,2.12132034355964,1.5);
#1290=EDGE_CURVE('',#1210,#210,#1280,.T.);
#1300=ORIENTED_EDGE('',*,*,#1290,.F.);
#1310=ORIENTED_EDGE('',*,*,#220,.T.);
#1320=EDGE_LOOP('',(#1310,#1300,#1230,#1140,#1060,#970));
#1330=FACE_OUTER_BOUND('',#1320,.T.);
#1340=ADVANCED_FACE('',(#1330),#960,.T.);
#1350=CARTESIAN_POINT('',(0.,1.5,1.5));
#1360=DIRECTION('',(1.,0.,0.));
#1370=DIRECTION('',(0.,-1.,0.));
#1380=AXIS2_PLACEMENT_3D('',#1350,#1360,#1370);
#1390=CYLINDRICAL_SURFACE('',#1380,1.5);
#1400=ORIENTED_EDGE('',*,*,#1290,.T.);
#1410=CARTESIAN_POINT('',(1.5,1.5,1.5));
#1420=DIRECTION('',(-0.707106781186548,0.,0.707106781186548));
#1430=DIRECTION('',(0.707106781186548,0.,0.707106781186548));
#1440=AXIS2_PLACEMENT_3D('',#1410,#1420,#1430);
#1450=ELLIPSE('',#1440,2.12132034355964,1.5);
#1460=CARTESIAN_POINT('',(1.5,0.,1.5));
#1470=VERTEX_POINT('',#1460);
#1480=EDGE_CURVE('',#1210,#1470,#1450,.T.);
#1490=ORIENTED_EDGE('',*,*,#1480,.F.);
#1500=CARTESIAN_POINT('',(0.,0.,1.5));
#1510=DIRECTION('',(1.,0.,0.));
#1520=VECTOR('',#1510,1.);
#1530=LINE('',#1500,#1520);
#1540=CARTESIAN_POINT('',(38.5,0.,1.5));
#1550=VERTEX_POINT('',#1540);
#1560=EDGE_CURVE('',#1470,#1550,#1530,.T.);
#1570=ORIENTED_EDGE('',*,*,#1560,.F.);
#1580=CARTESIAN_POINT('',(38.5,1.5,1.5));
#1590=DIRECTION('',(0.707106781186548,0.,0.707106781186548));
#1600=DIRECTION('',(-0.707106781186548,0.,0.707106781186548));
#1610=AXIS2_PLACEMENT_3D('',#1580,#1590,#1600);
#1620=ELLIPSE('',#1610,2.12132034355964,1.5);
#1630=CARTESIAN_POINT('',(39.5606601717798,0.439339828220179,
0.439339828220179));
#1640=VERTEX_POINT('',#1630);
#1650=EDGE_CURVE('',#1550,#1640,#1620,.T.);
#1660=ORIENTED_EDGE('',*,*,#1650,.F.);
#1670=CARTESIAN_POINT('',(38.5,1.5,1.5));
#1680=DIRECTION('',(0.707106781186548,0.707106781186548,0.));
#1690=DIRECTION('',(-0.707106781186548,0.707106781186548,0.));
#1700=AXIS2_PLACEMENT_3D('',#1670,#1680,#1690);
#1710=ELLIPSE('',#1700,2.12132034355964,1.5);
#1720=EDGE_CURVE('',#1640,#290,#1710,.T.);
#1730=ORIENTED_EDGE('',*,*,#1720,.F.);
#1740=ORIENTED_EDGE('',*,*,#300,.T.);
#1750=EDGE_LOOP('',(#1740,#1730,#1660,#1570,#1490,#1400));
#1760=FACE_OUTER_BOUND('',#1750,.T.);
#1770=ADVANCED_FACE('',(#1760),#1390,.T.);
#1780=CARTESIAN_POINT('',(38.5,0.,1.5));
#1790=DIRECTION('',(0.,1.,0.));
#1800=DIRECTION('',(1.,0.,0.));
#1810=AXIS2_PLACEMENT_3D('',#1780,#1790,#1800);
#1820=CYLINDRICAL_SURFACE('',#1810,1.5);
#1830=ORIENTED_EDGE('',*,*,#1720,.T.);
#1840=CARTESIAN_POINT('',(38.5,1.5,1.5));
#1850=DIRECTION('',(0.,-0.707106781186548,0.707106781186548));
#1860=DIRECTION('',(0.,0.707106781186548,0.707106781186548));
#1870=AXIS2_PLACEMENT_3D('',#1840,#1850,#1860);
#1880=ELLIPSE('',#1870,2.12132034355964,1.5);
#1890=CARTESIAN_POINT('',(40.,1.5,1.5));
#1900=VERTEX_POINT('',#1890);
#1910=EDGE_CURVE('',#1640,#1900,#1880,.T.);
#1920=ORIENTED_EDGE('',*,*,#1910,.F.);
#1930=CARTESIAN_POINT('',(40.,0.,1.5));
#1940=DIRECTION('',(0.,1.,0.));
#1950=VECTOR('',#1940,1.);
#1960=LINE('',#1930,#1950);
#1970=CARTESIAN_POINT('',(40.,38.5,1.5));
#1980=VERTEX_POINT('',#1970);
#1990=EDGE_CURVE('',#1900,#1980,#1960,.T.);
#2000=ORIENTED_EDGE('',*,*,#1990,.F.);
#2010=CARTESIAN_POINT('',(38.5,38.5,1.5));
#2020=DIRECTION('',(0.,0.707106781186548,0.707106781186548));
#2030=DIRECTION('',(0.,-0.707106781186548,0.707106781186548));
#2040=AXIS2_PLACEMENT_3D('',#2010,#2020,#2030);
#2050=ELLIPSE('',#2040,2.12132034355964,1.5);
#2060=EDGE_CURVE('',#1980,#520,#2050,.T.);
#2070=ORIENTED_EDGE('',*,*,#2060,.F.);
#2080=ORIENTED_EDGE('',*,*,#530,.F.);
#2090=ORIENTED_EDGE('',*,*,#360,.T.);
#2100=EDGE_LOOP('',(#2090,#2080,#2070,#2000,#1920,#1830));
#2110=FACE_OUTER_BOUND('',#2100,.T.);
#2120=ADVANCED_FACE('',(#2110),#1820,.T.);
#2130=CARTESIAN_POINT('',(0.,0.,5.));
#2140=DIRECTION('',(0.,0.,1.));
#2150=DIRECTION('',(1.,0.,0.));
#2160=AXIS2_PLACEMENT_3D('',#2130,#2140,#2150);
#2170=PLANE('',#2160);
#2180=CARTESIAN_POINT('',(0.,31.,5.));
#2190=DIRECTION('',(-1.,0.,0.));
#2200=VECTOR('',#2190,1.);
#2210=LINE('',#2180,#2200);
#2220=CARTESIAN_POINT('',(31.,31.,5.));
#2230=VERTEX_POINT('',#2220);
#2240=CARTESIAN_POINT('',(9.,31.,5.));
#2250=VERTEX_POINT('',#2240);
#2260=EDGE_CURVE('',#2230,#2250,#2210,.T.);
#2270=ORIENTED_EDGE('',*,*,#2260,.F.);
#2280=CARTESIAN_POINT('',(9.,0.,5.));
#2290=DIRECTION('',(0.,-1.,0.));
#2300=VECTOR('',#2290,1.);
#2310=LINE('',#2280,#2300);
#2320=CARTESIAN_POINT('',(9.,9.,5.));
#2330=VERTEX_POINT('',#2320);
#2340=EDGE_CURVE('',#2250,#2330,#2310,.T.);
#2350=ORIENTED_EDGE('',*,*,#2340,.F.);
#2360=CARTESIAN_POINT('',(0.,9.,5.));
#2370=DIRECTION('',(1.,0.,0.));
#2380=VECTOR('',#2370,1.);
#2390=LINE('',#2360,#2380);
#2400=CARTESIAN_POINT('',(31.,9.,5.));
#2410=VERTEX_POINT('',#2400);
#2420=EDGE_CURVE('',#2330,#2410,#2390,.T.);
#2430=ORIENTED_EDGE('',*,*,#2420,.F.);
#2440=CARTESIAN_POINT('',(31.,0.,5.));
#2450=DIRECTION('',(0.,1.,0.));
#2460=VECTOR('',#2450,1.);
#2470=LINE('',#2440,#2460);
#2480=EDGE_CURVE('',#2410,#2230,#2470,.T.);
#2490=ORIENTED_EDGE('',*,*,#2480,.F.);
#2500=EDGE_LOOP('',(#2490,#2430,#2350,#2270));
#2510=FACE_BOUND('',#2500,.T.);
#2520=CARTESIAN_POINT('',(1.5,38.5,5.));
#2530=DIRECTION('',(0.,0.,-1.));
#2540=DIRECTION('',(-1.,0.,0.));
#2550=AXIS2_PLACEMENT_3D('',#2520,#2530,#2540);
#2560=CIRCLE('',#2550,1.5);
#2570=CARTESIAN_POINT('',(0.,38.5,5.));
#2580=VERTEX_POINT('',#2570);
#2590=CARTESIAN_POINT('',(1.5,40.,5.));
#2600=VERTEX_POINT('',#2590);
#2610=EDGE_CURVE('',#2580,#2600,#2560,.T.);
#2620=ORIENTED_EDGE('',*,*,#2610,.F.);
#2630=CARTESIAN_POINT('',(40.,40.,5.));
#2640=DIRECTION('',(-1.,0.,0.));
#2650=VECTOR('',#2640,1.);
#2660=LINE('',#2630,#2650);
#2670=CARTESIAN_POINT('',(38.5,40.,5.));
#2680=VERTEX_POINT('',#2670);
#2690=EDGE_CURVE('',#2680,#2600,#2660,.T.);
#2700=ORIENTED_EDGE('',*,*,#2690,.T.);
#2710=CARTESIAN_POINT('',(38.5,38.5,5.));
#2720=DIRECTION('',(0.,0.,1.));
#2730=DIRECTION('',(1.,0.,0.));
#2740=AXIS2_PLACEMENT_3D('',#2710,#2720,#2730);
#2750=CIRCLE('',#2740,1.5);
#2760=CARTESIAN_POINT('',(40.,38.5,5.));
#2770=VERTEX_POINT('',#2760);
#2780=EDGE_CURVE('',#2770,#2680,#2750,.T.);
#2790=ORIENTED_EDGE('',*,*,#2780,.T.);
#2800=CARTESIAN_POINT('',(40.,0.,5.));
#2810=DIRECTION('',(0.,1.,0.));
#2820=VECTOR('',#2810,1.);
#2830=LINE('',#2800,#2820);
#2840=CARTESIAN_POINT('',(40.,1.5,5.));
#2850=VERTEX_POINT('',#2840);
#2860=EDGE_CURVE('',#2850,#2770,#2830,.T.);
#2870=ORIENTED_EDGE('',*,*,#2860,.T.);
#2880=CARTESIAN_POINT('',(38.5,1.5,5.));
#2890=DIRECTION('',(0.,0.,1.));
#2900=DIRECTION('',(1.,0.,0.));
#2910=AXIS2_PLACEMENT_3D('',#2880,#2890,#2900);
#2920=CIRCLE('',#2910,1.5);
#2930=CARTESIAN_POINT('',(38.5,0.,5.));
#2940=VERTEX_POINT('',#2930);
#2950=EDGE_CURVE('',#2940,#2850,#2920,.T.);
#2960=ORIENTED_EDGE('',*,*,#2950,.T.);
#2970=CARTESIAN_POINT('',(0.,0.,5.));
#2980=DIRECTION('',(1.,0.,0.));
#2990=VECTOR('',#2980,1.);
#3000=LINE('',#2970,#2990);
#3010=CARTESIAN_POINT('',(1.5,0.,5.));
#3020=VERTEX_POINT('',#3010);
#3030=EDGE_CURVE('',#3020,#2940,#3000,.T.);
#3040=ORIENTED_EDGE('',*,*,#3030,.T.);
#3050=CARTESIAN_POINT('',(1.5,1.5,5.));
#3060=DIRECTION('',(0.,0.,1.));
#3070=DIRECTION('',(1.,0.,0.));
#3080=AXIS2_PLACEMENT_3D('',#3050,#3060,#3070);
#3090=CIRCLE('',#3080,1.5);
#3100=CARTESIAN_POINT('',(0.,1.5,5.));
#3110=VERTEX_POINT('',#3100);
#3120=EDGE_CURVE('',#3110,#3020,#3090,.T.);
#3130=ORIENTED_EDGE('',*,*,#3120,.T.);
#3140=CARTESIAN_POINT('',(0.,40.,5.));
#3150=DIRECTION('',(0.,-1.,0.));
#3160=VECTOR('',#3150,1.);
#3170=LINE('',#3140,#3160);
#3180=EDGE_CURVE('',#2580,#3110,#3170,.T.);
#3190=ORIENTED_EDGE('',*,*,#3180,.T.);
#3200=EDGE_LOOP('',(#3190,#3130,#3040,#2960,#2870,#2790,#2700,#2620));
#3210=FACE_OUTER_BOUND('',#3200,.T.);
#3220=ADVANCED_FACE('',(#2510,#3210),#2170,.T.);
#3230=CARTESIAN_POINT('',(20.,20.,20.));
#3240=DIRECTION('',(0.,0.,1.));
#3250=DIRECTION('',(1.,0.,0.));
#3260=AXIS2_PLACEMENT_3D('',#3230,#3240,#3250);
#3270=PLANE('',#3260);
#3280=CARTESIAN_POINT('',(9.,9.,20.));
#3290=DIRECTION('',(0.,1.,0.));
#3300=VECTOR('',#3290,1.);
#3310=LINE('',#3280,#3300);
#3320=CARTESIAN_POINT('',(9.,9.,20.));
#3330=VERTEX_POINT('',#3320);
#3340=CARTESIAN_POINT('',(9.,31.,20.));
#3350=VERTEX_POINT('',#3340);
#3360=EDGE_CURVE('',#3330,#3350,#3310,.T.);
#3370=ORIENTED_EDGE('',*,*,#3360,.F.);
#3380=CARTESIAN_POINT('',(9.,31.,20.));
#3390=DIRECTION('',(1.,0.,0.));
#3400=VECTOR('',#3390,1.);
#3410=LINE('',#3380,#3400);
#3420=CARTESIAN_POINT('',(31.,31.,20.));
#3430=VERTEX_POINT('',#3420);
#3440=EDGE_CURVE('',#3350,#3430,#3410,.T.);
#3450=ORIENTED_EDGE('',*,*,#3440,.F.);
#3460=CARTESIAN_POINT('',(31.,31.,20.));
#3470=DIRECTION('',(0.,-1.,0.));
#3480=VECTOR('',#3470,1.);
#3490=LINE('',#3460,#3480);
#3500=CARTESIAN_POINT('',(31.,9.,20.));
#3510=VERTEX_POINT('',#3500);
#3520=EDGE_CURVE('',#3430,#3510,#3490,.T.);
#3530=ORIENTED_EDGE('',*,*,#3520,.F.);
#3540=CARTESIAN_POINT('',(31.,9.,20.));
#3550=DIRECTION('',(-1.,0.,0.));
#3560=VECTOR('',#3550,1.);
#3570=LINE('',#3540,#3560);
#3580=EDGE_CURVE('',#3510,#3330,#3570,.T.);
#3590=ORIENTED_EDGE('',*,*,#3580,.F.);
#3600=EDGE_LOOP('',(#3590,#3530,#3450,#3370));
#3610=FACE_OUTER_BOUND('',#3600,.T.);
#3620=CARTESIAN_POINT('',(20.,20.,20.));
#3630=DIRECTION('',(0.,0.,1.));
#3640=DIRECTION('',(1.,0.,0.));
#3650=AXIS2_PLACEMENT_3D('',#3620,#3630,#3640);
#3660=CIRCLE('',#3650,4.);
#3670=CARTESIAN_POINT('',(24.,20.,20.));
#3680=VERTEX_POINT('',#3670);
#3690=CARTESIAN_POINT('',(16.,20.,20.));
#3700=VERTEX_POINT('',#3690);
#3710=EDGE_CURVE('',#3680,#3700,#3660,.T.);
#3720=ORIENTED_EDGE('',*,*,#3710,.F.);
#3730=EDGE_CURVE('',#3700,#3680,#3660,.T.);
#3740=ORIENTED_EDGE('',*,*,#3730,.F.);
#3750=EDGE_LOOP('',(#3740,#3720));
#3760=FACE_BOUND('',#3750,.T.);
#3770=ADVANCED_FACE('',(#3610,#3760),#3270,.T.);
#3780=CARTESIAN_POINT('',(31.,31.,5.));
#3790=DIRECTION('',(1.,0.,0.));
#3800=DIRECTION('',(0.,-1.,0.));
#3810=AXIS2_PLACEMENT_3D('',#3780,#3790,#3800);
#3820=PLANE('',#3810);
#3830=CARTESIAN_POINT('',(31.,9.,5.));
#3840=DIRECTION('',(0.,0.,1.));
#3850=VECTOR('',#3840,1.);
#3860=LINE('',#3830,#3850);
#3870=EDGE_CURVE('',#2410,#3510,#3860,.T.);
#3880=ORIENTED_EDGE('',*,*,#3870,.F.);
#3890=ORIENTED_EDGE('',*,*,#3520,.T.);
#3900=CARTESIAN_POINT('',(31.,31.,5.));
#3910=DIRECTION('',(0.,0.,1.));
#3920=VECTOR('',#3910,1.);
#3930=LINE('',#3900,#3920);
#3940=EDGE_CURVE('',#2230,#3430,#3930,.T.);
#3950=ORIENTED_EDGE('',*,*,#3940,.T.);
#3960=ORIENTED_EDGE('',*,*,#2480,.T.);
#3970=EDGE_LOOP('',(#3960,#3950,#3890,#3880));
#3980=FACE_OUTER_BOUND('',#3970,.T.);
#3990=ADVANCED_FACE('',(#3980),#3820,.T.);
#4000=CARTESIAN_POINT('',(9.,31.,5.));
#4010=DIRECTION('',(-0.,1.,0.));
#4020=DIRECTION('',(1.,0.,0.));
#4030=AXIS2_PLACEMENT_3D('',#4000,#4010,#4020);
#4040=PLANE('',#4030);
#4050=ORIENTED_EDGE('',*,*,#3940,.F.);
#4060=ORIENTED_EDGE('',*,*,#3440,.T.);
#4070=CARTESIAN_POINT('',(9.,31.,5.));
#4080=DIRECTION('',(0.,0.,1.));
#4090=VECTOR('',#4080,1.);
#4100=LINE('',#4070,#4090);
#4110=EDGE_CURVE('',#2250,#3350,#4100,.T.);
#4120=ORIENTED_EDGE('',*,*,#4110,.T.);
#4130=ORIENTED_EDGE('',*,*,#2260,.T.);
#4140=EDGE_LOOP('',(#4130,#4120,#4060,#4050));
#4150=FACE_OUTER_BOUND('',#4140,.T.);
#4160=ADVANCED_FACE('',(#4150),#4040,.T.);
#4170=CARTESIAN_POINT('',(9.,9.,5.));
#4180=DIRECTION('',(-1.,0.,0.));
#4190=DIRECTION('',(0.,1.,0.));
#4200=AXIS2_PLACEMENT_3D('',#4170,#4180,#4190);
#4210=PLANE('',#4200);
#4220=ORIENTED_EDGE('',*,*,#4110,.F.);
#4230=ORIENTED_EDGE('',*,*,#3360,.T.);
#4240=CARTESIAN_POINT('',(9.,9.,5.));
#4250=DIRECTION('',(0.,0.,1.));
#4260=VECTOR('',#4250,1.);
#4270=LINE('',#4240,#4260);
#4280=EDGE_CURVE('',#2330,#3330,#4270,.T.);
#4290=ORIENTED_EDGE('',*,*,#4280,.T.);
#4300=ORIENTED_EDGE('',*,*,#2340,.T.);
#4310=EDGE_LOOP('',(#4300,#4290,#4230,#4220));
#4320=FACE_OUTER_BOUND('',#4310,.T.);
#4330=ADVANCED_FACE('',(#4320),#4210,.T.);
#4340=CARTESIAN_POINT('',(31.,9.,5.));
#4350=DIRECTION('',(-0.,-1.,-0.));
#4360=DIRECTION('',(-1.,0.,0.));
#4370=AXIS2_PLACEMENT_3D('',#4340,#4350,#4360);
#4380=PLANE('',#4370);
#4390=ORIENTED_EDGE('',*,*,#4280,.F.);
#4400=ORIENTED_EDGE('',*,*,#3580,.T.);
#4410=ORIENTED_EDGE('',*,*,#3870,.T.);
#4420=ORIENTED_EDGE('',*,*,#2420,.T.);
#4430=EDGE_LOOP('',(#4420,#4410,#4400,#4390));
#4440=FACE_OUTER_BOUND('',#4430,.T.);
#4450=ADVANCED_FACE('',(#4440),#4380,.T.);
#4460=CARTESIAN_POINT('',(20.,20.,5.));
#4470=DIRECTION('',(0.,0.,1.));
#4480=DIRECTION('',(1.,0.,0.));
#4490=AXIS2_PLACEMENT_3D('',#4460,#4470,#4480);
#4500=PLANE('',#4490);
#4510=CARTESIAN_POINT('',(20.,20.,5.));
#4520=DIRECTION('',(0.,0.,1.));
#4530=DIRECTION('',(1.,0.,0.));
#4540=AXIS2_PLACEMENT_3D('',#4510,#4520,#4530);
#4550=CIRCLE('',#4540,4.);
#4560=CARTESIAN_POINT('',(24.,20.,5.));
#4570=VERTEX_POINT('',#4560);
#4580=CARTESIAN_POINT('',(16.,20.,5.));
#4590=VERTEX_POINT('',#4580);
#4600=EDGE_CURVE('',#4570,#4590,#4550,.T.);
#4610=ORIENTED_EDGE('',*,*,#4600,.T.);
#4620=EDGE_CURVE('',#4590,#4570,#4550,.T.);
#4630=ORIENTED_EDGE('',*,*,#4620,.T.);
#4640=EDGE_LOOP('',(#4630,#4610));
#4650=FACE_OUTER_BOUND('',#4640,.T.);
#4660=ADVANCED_FACE('',(#4650),#4500,.T.);
#4670=CARTESIAN_POINT('',(20.,20.,20.));
#4680=DIRECTION('',(0.,0.,1.));
#4690=DIRECTION('',(1.,0.,0.));
#4700=AXIS2_PLACEMENT_3D('',#4670,#4680,#4690);
#4710=CYLINDRICAL_SURFACE('',#4700,4.);
#4720=CARTESIAN_POINT('',(24.,20.,20.));
#4730=DIRECTION('',(0.,0.,1.));
#4740=VECTOR('',#4730,1.);
#4750=LINE('',#4720,#4740);
#4760=EDGE_CURVE('',#4570,#3680,#4750,.T.);
#4770=ORIENTED_EDGE('',*,*,#4760,.F.);
#4780=ORIENTED_EDGE('',*,*,#3730,.T.);
#4790=CARTESIAN_POINT('',(16.,20.,20.));
#4800=DIRECTION('',(0.,0.,1.));
#4810=VECTOR('',#4800,1.);
#4820=LINE('',#4790,#4810);
#4830=EDGE_CURVE('',#4590,#3700,#4820,.T.);
#4840=ORIENTED_EDGE('',*,*,#4830,.T.);
#4850=ORIENTED_EDGE('',*,*,#4620,.F.);
#4860=EDGE_LOOP('',(#4850,#4840,#4780,#4770));
#4870=FACE_OUTER_BOUND('',#4860,.T.);
#4880=ADVANCED_FACE('',(#4870),#4710,.F.);
#4890=CARTESIAN_POINT('',(20.,20.,20.));
#4900=DIRECTION('',(0.,0.,1.));
#4910=DIRECTION('',(1.,0.,0.));
#4920=AXIS2_PLACEMENT_3D('',#4890,#4900,#4910);
#4930=CYLINDRICAL_SURFACE('',#4920,4.);
#4940=ORIENTED_EDGE('',*,*,#4600,.F.);
#4950=ORIENTED_EDGE('',*,*,#4830,.F.);
#4960=ORIENTED_EDGE('',*,*,#3710,.T.);
#4970=ORIENTED_EDGE('',*,*,#4760,.T.);
#4980=EDGE_LOOP('',(#4970,#4960,#4950,#4940));
#4990=FACE_OUTER_BOUND('',#4980,.T.);
#5000=ADVANCED_FACE('',(#4990),#4930,.F.);
#5010=CARTESIAN_POINT('',(0.,0.,0.));
#5020=DIRECTION('',(-1.,0.,0.));
#5030=DIRECTION('',(0.,1.,0.));
#5040=AXIS2_PLACEMENT_3D('',#5010,#5020,#5030);
#5050=PLANE('',#5040);
#5060=ORIENTED_EDGE('',*,*,#1130,.T.);
#5070=CARTESIAN_POINT('',(0.,38.5,0.));
#5080=DIRECTION('',(0.,0.,1.));
#5090=VECTOR('',#5080,1.);
#5100=LINE('',#5070,#5090);
#5110=EDGE_CURVE('',#1040,#2580,#5100,.T.);
#5120=ORIENTED_EDGE('',*,*,#5110,.F.);
#5130=ORIENTED_EDGE('',*,*,#3180,.F.);
#5140=CARTESIAN_POINT('',(0.,1.5,0.));
#5150=DIRECTION('',(0.,0.,1.));
#5160=VECTOR('',#5150,1.);
#5170=LINE('',#5140,#5160);
#5180=EDGE_CURVE('',#1120,#3110,#5170,.T.);
#5190=ORIENTED_EDGE('',*,*,#5180,.T.);
#5200=EDGE_LOOP('',(#5190,#5130,#5120,#5060));
#5210=FACE_OUTER_BOUND('',#5200,.T.);
#5220=ADVANCED_FACE('',(#5210),#5050,.T.);
#5230=CARTESIAN_POINT('',(40.,0.,0.));
#5240=DIRECTION('',(-0.,-1.,-0.));
#5250=DIRECTION('',(-1.,0.,0.));
#5260=AXIS2_PLACEMENT_3D('',#5230,#5240,#5250);
#5270=PLANE('',#5260);
#5280=ORIENTED_EDGE('',*,*,#1560,.T.);
#5290=CARTESIAN_POINT('',(1.5,0.,0.));
#5300=DIRECTION('',(0.,0.,1.));
#5310=VECTOR('',#5300,1.);
#5320=LINE('',#5290,#5310);
#5330=EDGE_CURVE('',#1470,#3020,#5320,.T.);
#5340=ORIENTED_EDGE('',*,*,#5330,.F.);
#5350=ORIENTED_EDGE('',*,*,#3030,.F.);
#5360=CARTESIAN_POINT('',(38.5,0.,0.));
#5370=DIRECTION('',(0.,0.,1.));
#5380=VECTOR('',#5370,1.);
#5390=LINE('',#5360,#5380);
#5400=EDGE_CURVE('',#1550,#2940,#5390,.T.);
#5410=ORIENTED_EDGE('',*,*,#5400,.T.);
#5420=EDGE_LOOP('',(#5410,#5350,#5340,#5280));
#5430=FACE_OUTER_BOUND('',#5420,.T.);
#5440=ADVANCED_FACE('',(#5430),#5270,.T.);
#5450=CARTESIAN_POINT('',(40.,40.,0.));
#5460=DIRECTION('',(1.,0.,0.));
#5470=DIRECTION('',(0.,-1.,0.));
#5480=AXIS2_PLACEMENT_3D('',#5450,#5460,#5470);
#5490=PLANE('',#5480);
#5500=ORIENTED_EDGE('',*,*,#1990,.T.);
#5510=CARTESIAN_POINT('',(40.,1.5,0.));
#5520=DIRECTION('',(0.,0.,1.));
#5530=VECTOR('',#5520,1.);
#5540=LINE('',#5510,#5530);
#5550=EDGE_CURVE('',#1900,#2850,#5540,.T.);
#5560=ORIENTED_EDGE('',*,*,#5550,.F.);
#5570=ORIENTED_EDGE('',*,*,#2860,.F.);
#5580=CARTESIAN_POINT('',(40.,38.5,0.));
#5590=DIRECTION('',(0.,0.,1.));
#5600=VECTOR('',#5590,1.);
#5610=LINE('',#5580,#5600);
#5620=EDGE_CURVE('',#1980,#2770,#5610,.T.);
#5630=ORIENTED_EDGE('',*,*,#5620,.T.);
#5640=EDGE_LOOP('',(#5630,#5570,#5560,#5500));
#5650=FACE_OUTER_BOUND('',#5640,.T.);
#5660=ADVANCED_FACE('',(#5650),#5490,.T.);
#5670=CARTESIAN_POINT('',(0.,40.,0.));
#5680=DIRECTION('',(-0.,1.,0.));
#5690=DIRECTION('',(1.,0.,0.));
#5700=AXIS2_PLACEMENT_3D('',#5670,#5680,#5690);
#5710=PLANE('',#5700);
#5720=CARTESIAN_POINT('',(38.5,40.,0.));
#5730=DIRECTION('',(0.,0.,1.));
#5740=VECTOR('',#5730,1.);
#5750=LINE('',#5720,#5740);
#5760=EDGE_CURVE('',#610,#2680,#5750,.T.);
#5770=ORIENTED_EDGE('',*,*,#5760,.F.);
#5780=ORIENTED_EDGE('',*,*,#2690,.F.);
#5790=CARTESIAN_POINT('',(1.5,40.,0.));
#5800=DIRECTION('',(0.,0.,1.));
#5810=VECTOR('',#5800,1.);
#5820=LINE('',#5790,#5810);
#5830=EDGE_CURVE('',#690,#2600,#5820,.T.);
#5840=ORIENTED_EDGE('',*,*,#5830,.T.);
#5850=ORIENTED_EDGE('',*,*,#700,.T.);
#5860=EDGE_LOOP('',(#5850,#5840,#5780,#5770));
#5870=FACE_OUTER_BOUND('',#5860,.T.);
#5880=ADVANCED_FACE('',(#5870),#5710,.T.);
#5890=CARTESIAN_POINT('',(38.5,38.5,0.));
#5900=DIRECTION('',(0.,0.,1.));
#5910=DIRECTION('',(1.,0.,0.));
#5920=AXIS2_PLACEMENT_3D('',#5890,#5900,#5910);
#5930=CYLINDRICAL_SURFACE('',#5920,1.5);
#5940=ORIENTED_EDGE('',*,*,#2780,.F.);
#5950=ORIENTED_EDGE('',*,*,#5760,.T.);
#5960=ORIENTED_EDGE('',*,*,#620,.T.);
#5970=ORIENTED_EDGE('',*,*,#2060,.T.);
#5980=ORIENTED_EDGE('',*,*,#5620,.F.);
#5990=EDGE_LOOP('',(#5980,#5970,#5960,#5950,#5940));
#6000=FACE_OUTER_BOUND('',#5990,.T.);
#6010=ADVANCED_FACE('',(#6000),#5930,.T.);
#6020=CARTESIAN_POINT('',(1.5,38.5,0.));
#6030=DIRECTION('',(0.,0.,-1.));
#6040=DIRECTION('',(-1.,0.,0.));
#6050=AXIS2_PLACEMENT_3D('',#6020,#6030,#6040);
#6060=CYLINDRICAL_SURFACE('',#6050,1.5);
#6070=ORIENTED_EDGE('',*,*,#1050,.F.);
#6080=ORIENTED_EDGE('',*,*,#790,.F.);
#6090=ORIENTED_EDGE('',*,*,#5830,.F.);
#6100=ORIENTED_EDGE('',*,*,#2610,.T.);
#6110=ORIENTED_EDGE('',*,*,#5110,.T.);
#6120=EDGE_LOOP('',(#6110,#6100,#6090,#6080,#6070));
#6130=FACE_OUTER_BOUND('',#6120,.T.);
#6140=ADVANCED_FACE('',(#6130),#6060,.T.);
#6150=CARTESIAN_POINT('',(1.5,1.5,0.));
#6160=DIRECTION('',(0.,0.,1.));
#6170=DIRECTION('',(1.,0.,0.));
#6180=AXIS2_PLACEMENT_3D('',#6150,#6160,#6170);
#6190=CYLINDRICAL_SURFACE('',#6180,1.5);
#6200=ORIENTED_EDGE('',*,*,#3120,.F.);
#6210=ORIENTED_EDGE('',*,*,#5330,.T.);
#6220=ORIENTED_EDGE('',*,*,#1480,.T.);
#6230=ORIENTED_EDGE('',*,*,#1220,.T.);
#6240=ORIENTED_EDGE('',*,*,#5180,.F.);
#6250=EDGE_LOOP('',(#6240,#6230,#6220,#6210,#6200));
#6260=FACE_OUTER_BOUND('',#6250,.T.);
#6270=ADVANCED_FACE('',(#6260),#6190,.T.);
#6280=CARTESIAN_POINT('',(38.5,1.5,0.));
#6290=DIRECTION('',(0.,0.,1.));
#6300=DIRECTION('',(1.,0.,0.));
#6310=AXIS2_PLACEMENT_3D('',#6280,#6290,#6300);
#6320=CYLINDRICAL_SURFACE('',#6310,1.5);
#6330=ORIENTED_EDGE('',*,*,#2950,.F.);
#6340=ORIENTED_EDGE('',*,*,#5550,.T.);
#6350=ORIENTED_EDGE('',*,*,#1910,.T.);
#6360=ORIENTED_EDGE('',*,*,#1650,.T.);
#6370=ORIENTED_EDGE('',*,*,#5400,.F.);
#6380=EDGE_LOOP('',(#6370,#6360,#6350,#6340,#6330));
#6390=FACE_OUTER_BOUND('',#6380,.T.);
#6400=ADVANCED_FACE('',(#6390),#6320,.T.);
#6410=CLOSED_SHELL('',(#5220,#5440,#5660,#5880,#6010,#6140,#6270,#6400,
#3220,#3770,#3990,#4160,#4330,#4450,#4660,#4880,#5000,#400,#910,#1340,
#1770,#2120));
#6420=MANIFOLD_SOLID_BREP('',#6410);
#6430=CARTESIAN_POINT('',(0.,0.,0.));
#6440=DIRECTION('',(0.,0.,1.));
#6450=DIRECTION('',(1.,0.,0.));
#6460=AXIS2_PLACEMENT_3D('',#6430,#6440,#6450);
#6470=APPLICATION_CONTEXT(' ');
#6480=APPLICATION_PROTOCOL_DEFINITION(' ','automotive_design',1998,#6470
);
#6490=PRODUCT_CONTEXT('',#6470,'mechanical');
#6500=PRODUCT_DEFINITION_CONTEXT('part definition',#6470,'design');
#6510=PRODUCT('Abdeckkappe-MMS-44_40x40x20-Vollkern_44.0310_PX171721',
'Abdeckkappe-MMS-44_40x40x20-Vollkern_44.0310_PX171721','',(#6490));
#6520=PRODUCT_RELATED_PRODUCT_CATEGORY('part',' ',(#6510));
#6530=PRODUCT_DEFINITION_FORMATION_WITH_SPECIFIED_SOURCE('','',#6510,
.BOUGHT.);
#6540=PRODUCT_DEFINITION('',' ',#6530,#6500);
#6550=PRODUCT_DEFINITION_SHAPE('','',#6540);
#6560=DIMENSIONAL_EXPONENTS(1.,0.,0.,0.,0.,0.,0.);
#6570=DIMENSIONAL_EXPONENTS(0.,0.,0.,0.,0.,0.,0.);
#6580=DIMENSIONAL_EXPONENTS(0.,0.,0.,0.,0.,0.,0.);
#6590=(LENGTH_UNIT() NAMED_UNIT(*) SI_UNIT(.MILLI.,.METRE.));
#6600=(NAMED_UNIT(*) PLANE_ANGLE_UNIT() SI_UNIT($,.RADIAN.));
#6610=(NAMED_UNIT(*) SI_UNIT($,.STERADIAN.) SOLID_ANGLE_UNIT());
#6620=(GEOMETRIC_REPRESENTATION_CONTEXT(3) 
GLOBAL_UNCERTAINTY_ASSIGNED_CONTEXT((#6630)) 
GLOBAL_UNIT_ASSIGNED_CONTEXT((#6590,#6600,#6610)) REPRESENTATION_CONTEXT
('',''));
#6630=UNCERTAINTY_MEASURE_WITH_UNIT(LENGTH_MEASURE(1.E-6),#6590,
'distance_accuracy_value','maximum gap value');
#6640=ADVANCED_BREP_SHAPE_REPRESENTATION('',(#6460,#6420),#6620);
#6650=SHAPE_DEFINITION_REPRESENTATION(#6550,#6640);
#6660=COLOUR_RGB('',0.0823529437184334,0.0862745121121407,
0.0980392247438431);
#6670=FILL_AREA_STYLE_COLOUR('',#6660);
#6680=FILL_AREA_STYLE('',(#6670));
#6690=SURFACE_STYLE_FILL_AREA(#6680);
#6700=SURFACE_SIDE_STYLE('',(#6690));
#6710=SURFACE_STYLE_USAGE(.BOTH.,#6700);
#6720=PRESENTATION_STYLE_ASSIGNMENT((#6710));
#6730=STYLED_ITEM('',(#6720),#6420);
#6740=DRAUGHTING_MODEL('',(#6730),#6620);
ENDSEC;
END-ISO-10303-21;
