ISO-10303-21;
HEADER;
FILE_DESCRIPTION(('Creo Elements/Direct Modeling STEP Export'),'2;1');
FILE_NAME(
'//KR-CAD2/PhoenixTemp/karl.letzgus/Konvertierung/55.0155_Klemmschiene-M
MS-55_40mm.stp','2022-03-21T 8:06:40',(''),(''),
'PTC Creo Elements/Direct Modeling STEP processor for AP214 (Solid Model
)',
'PTC Creo Elements/Direct Modeling 19.0C  15-Aug-2015 (C) Parametric Tec
hnology GmbH','');
FILE_SCHEMA(('AUTOMOTIVE_DESIGN { 1 0 10303 214 1 1 1 1 }'));
ENDSEC;
DATA;
#10=CARTESIAN_POINT('',(-4.0840909090909,2.46156630432572E-14,30.));
#20=DIRECTION('',(0.,0.,1.));
#30=DIRECTION('',(1.,0.,0.));
#40=AXIS2_PLACEMENT_3D('',#10,#20,#30);
#50=PLANE('',#40);
#60=CARTESIAN_POINT('',(-2.1,-5.,30.));
#70=DIRECTION('',(-1.,2.22044604925031E-16,0.));
#80=VECTOR('',#70,1.);
#90=LINE('',#60,#80);
#100=CARTESIAN_POINT('',(0.799999999999997,-5.,30.));
#110=VERTEX_POINT('',#100);
#120=CARTESIAN_POINT('',(-2.2,-5.,30.));
#130=VERTEX_POINT('',#120);
#140=EDGE_CURVE('',#110,#130,#90,.T.);
#150=ORIENTED_EDGE('',*,*,#140,.F.);
#160=CARTESIAN_POINT('',(-2.2,-10.,30.));
#170=DIRECTION('',(-2.22044604925031E-16,-1.,0.));
#180=VECTOR('',#170,1.);
#190=LINE('',#160,#180);
#200=CARTESIAN_POINT('',(-2.2,-10.,30.));
#210=VERTEX_POINT('',#200);
#220=EDGE_CURVE('',#130,#210,#190,.T.);
#230=ORIENTED_EDGE('',*,*,#220,.F.);
#240=CARTESIAN_POINT('',(-6.99999999999998,-10.,30.));
#250=DIRECTION('',(-1.,2.22044604925031E-16,0.));
#260=VECTOR('',#250,1.);
#270=LINE('',#240,#260);
#280=CARTESIAN_POINT('',(-8.99999999999998,-10.,30.));
#290=VERTEX_POINT('',#280);
#300=EDGE_CURVE('',#210,#290,#270,.T.);
#310=ORIENTED_EDGE('',*,*,#300,.F.);
#320=CARTESIAN_POINT('',(-8.99999999999997,10.0000000000001,30.));
#330=DIRECTION('',(2.22044604925031E-16,1.,0.));
#340=VECTOR('',#330,1.);
#350=LINE('',#320,#340);
#360=CARTESIAN_POINT('',(-8.99999999999998,10.0000000000001,30.));
#370=VERTEX_POINT('',#360);
#380=EDGE_CURVE('',#290,#370,#350,.T.);
#390=ORIENTED_EDGE('',*,*,#380,.F.);
#400=CARTESIAN_POINT('',(0.,10.0000000000001,30.));
#410=DIRECTION('',(1.,-2.22044604925031E-16,0.));
#420=VECTOR('',#410,1.);
#430=LINE('',#400,#420);
#440=CARTESIAN_POINT('',(-2.2,10.0000000000001,30.));
#450=VERTEX_POINT('',#440);
#460=EDGE_CURVE('',#370,#450,#430,.T.);
#470=ORIENTED_EDGE('',*,*,#460,.F.);
#480=CARTESIAN_POINT('',(-2.2,0.,30.));
#490=DIRECTION('',(2.22044604925031E-16,1.,0.));
#500=VECTOR('',#490,1.);
#510=LINE('',#480,#500);
#520=CARTESIAN_POINT('',(-2.2,5.,30.));
#530=VERTEX_POINT('',#520);
#540=EDGE_CURVE('',#530,#450,#510,.T.);
#550=ORIENTED_EDGE('',*,*,#540,.T.);
#560=CARTESIAN_POINT('',(0.,5.,30.));
#570=DIRECTION('',(1.,-2.22044604925031E-16,0.));
#580=VECTOR('',#570,1.);
#590=LINE('',#560,#580);
#600=CARTESIAN_POINT('',(0.8,5.,30.));
#610=VERTEX_POINT('',#600);
#620=EDGE_CURVE('',#530,#610,#590,.T.);
#630=ORIENTED_EDGE('',*,*,#620,.F.);
#640=CARTESIAN_POINT('',(0.799999999999998,-5.,30.));
#650=DIRECTION('',(-2.22044604925031E-16,-1.,0.));
#660=VECTOR('',#650,1.);
#670=LINE('',#640,#660);
#680=EDGE_CURVE('',#610,#110,#670,.T.);
#690=ORIENTED_EDGE('',*,*,#680,.F.);
#700=EDGE_LOOP('',(#690,#630,#550,#470,#390,#310,#230,#150));
#710=FACE_OUTER_BOUND('',#700,.T.);
#720=ADVANCED_FACE('',(#710),#50,.T.);
#730=CARTESIAN_POINT('',(-4.0840909090909,2.44213740139478E-14,-10.));
#740=DIRECTION('',(0.,0.,1.));
#750=DIRECTION('',(1.,0.,0.));
#760=AXIS2_PLACEMENT_3D('',#730,#740,#750);
#770=PLANE('',#760);
#780=CARTESIAN_POINT('',(-2.2,0.,-10.));
#790=DIRECTION('',(2.22044604925031E-16,1.,0.));
#800=VECTOR('',#790,1.);
#810=LINE('',#780,#800);
#820=CARTESIAN_POINT('',(-2.2,5.,-10.));
#830=VERTEX_POINT('',#820);
#840=CARTESIAN_POINT('',(-2.2,10.0000000000001,-10.));
#850=VERTEX_POINT('',#840);
#860=EDGE_CURVE('',#830,#850,#810,.T.);
#870=ORIENTED_EDGE('',*,*,#860,.F.);
#880=CARTESIAN_POINT('',(0.,10.0000000000001,-10.));
#890=DIRECTION('',(-1.,2.22044604925031E-16,0.));
#900=VECTOR('',#890,1.);
#910=LINE('',#880,#900);
#920=CARTESIAN_POINT('',(-8.99999999999998,10.0000000000001,-10.));
#930=VERTEX_POINT('',#920);
#940=EDGE_CURVE('',#850,#930,#910,.T.);
#950=ORIENTED_EDGE('',*,*,#940,.F.);
#960=CARTESIAN_POINT('',(-8.99999999999997,10.0000000000001,-10.));
#970=DIRECTION('',(-2.22044604925031E-16,-1.,0.));
#980=VECTOR('',#970,1.);
#990=LINE('',#960,#980);
#1000=CARTESIAN_POINT('',(-8.99999999999998,-10.,-10.));
#1010=VERTEX_POINT('',#1000);
#1020=EDGE_CURVE('',#930,#1010,#990,.T.);
#1030=ORIENTED_EDGE('',*,*,#1020,.F.);
#1040=CARTESIAN_POINT('',(-6.99999999999998,-10.,-10.));
#1050=DIRECTION('',(1.,-2.22044604925031E-16,0.));
#1060=VECTOR('',#1050,1.);
#1070=LINE('',#1040,#1060);
#1080=CARTESIAN_POINT('',(-2.2,-10.,-10.));
#1090=VERTEX_POINT('',#1080);
#1100=EDGE_CURVE('',#1010,#1090,#1070,.T.);
#1110=ORIENTED_EDGE('',*,*,#1100,.F.);
#1120=CARTESIAN_POINT('',(-2.2,-10.,-10.));
#1130=DIRECTION('',(2.22044604925031E-16,1.,0.));
#1140=VECTOR('',#1130,1.);
#1150=LINE('',#1120,#1140);
#1160=CARTESIAN_POINT('',(-2.2,-5.,-10.));
#1170=VERTEX_POINT('',#1160);
#1180=EDGE_CURVE('',#1090,#1170,#1150,.T.);
#1190=ORIENTED_EDGE('',*,*,#1180,.F.);
#1200=CARTESIAN_POINT('',(-2.1,-5.,-10.));
#1210=DIRECTION('',(1.,-2.22044604925031E-16,0.));
#1220=VECTOR('',#1210,1.);
#1230=LINE('',#1200,#1220);
#1240=CARTESIAN_POINT('',(0.799999999999997,-5.,-10.));
#1250=VERTEX_POINT('',#1240);
#1260=EDGE_CURVE('',#1170,#1250,#1230,.T.);
#1270=ORIENTED_EDGE('',*,*,#1260,.F.);
#1280=CARTESIAN_POINT('',(0.799999999999998,-5.,-10.));
#1290=DIRECTION('',(2.22044604925031E-16,1.,0.));
#1300=VECTOR('',#1290,1.);
#1310=LINE('',#1280,#1300);
#1320=CARTESIAN_POINT('',(0.8,5.,-10.));
#1330=VERTEX_POINT('',#1320);
#1340=EDGE_CURVE('',#1250,#1330,#1310,.T.);
#1350=ORIENTED_EDGE('',*,*,#1340,.F.);
#1360=CARTESIAN_POINT('',(0.,5.,-10.));
#1370=DIRECTION('',(-1.,2.22044604925031E-16,0.));
#1380=VECTOR('',#1370,1.);
#1390=LINE('',#1360,#1380);
#1400=EDGE_CURVE('',#1330,#830,#1390,.T.);
#1410=ORIENTED_EDGE('',*,*,#1400,.F.);
#1420=EDGE_LOOP('',(#1410,#1350,#1270,#1190,#1110,#1030,#950,#870));
#1430=FACE_OUTER_BOUND('',#1420,.T.);
#1440=ADVANCED_FACE('',(#1430),#770,.F.);
#1450=CARTESIAN_POINT('',(-0.600000000000001,-5.,-10.));
#1460=DIRECTION('',(-2.22044604925031E-16,-1.,0.));
#1470=DIRECTION('',(1.,-2.22044604925031E-16,0.));
#1480=AXIS2_PLACEMENT_3D('',#1450,#1460,#1470);
#1490=PLANE('',#1480);
#1500=CARTESIAN_POINT('',(0.799999999999998,-5.,-10.));
#1510=DIRECTION('',(0.,0.,1.));
#1520=VECTOR('',#1510,1.);
#1530=LINE('',#1500,#1520);
#1540=EDGE_CURVE('',#1250,#110,#1530,.T.);
#1550=ORIENTED_EDGE('',*,*,#1540,.T.);
#1560=ORIENTED_EDGE('',*,*,#1260,.T.);
#1570=CARTESIAN_POINT('',(-2.2,-5.,-10.));
#1580=DIRECTION('',(0.,0.,1.));
#1590=VECTOR('',#1580,1.);
#1600=LINE('',#1570,#1590);
#1610=EDGE_CURVE('',#1170,#130,#1600,.T.);
#1620=ORIENTED_EDGE('',*,*,#1610,.F.);
#1630=ORIENTED_EDGE('',*,*,#140,.T.);
#1640=EDGE_LOOP('',(#1630,#1620,#1560,#1550));
#1650=FACE_OUTER_BOUND('',#1640,.T.);
#1660=ADVANCED_FACE('',(#1650),#1490,.T.);
#1670=CARTESIAN_POINT('',(-2.2,-5.,-10.));
#1680=DIRECTION('',(1.,-2.22044604925031E-16,0.));
#1690=DIRECTION('',(2.22044604925031E-16,1.,0.));
#1700=AXIS2_PLACEMENT_3D('',#1670,#1680,#1690);
#1710=PLANE('',#1700);
#1720=ORIENTED_EDGE('',*,*,#1610,.T.);
#1730=ORIENTED_EDGE('',*,*,#1180,.T.);
#1740=CARTESIAN_POINT('',(-2.2,-10.,-10.));
#1750=DIRECTION('',(0.,0.,1.));
#1760=VECTOR('',#1750,1.);
#1770=LINE('',#1740,#1760);
#1780=EDGE_CURVE('',#1090,#210,#1770,.T.);
#1790=ORIENTED_EDGE('',*,*,#1780,.F.);
#1800=ORIENTED_EDGE('',*,*,#220,.T.);
#1810=EDGE_LOOP('',(#1800,#1790,#1730,#1720));
#1820=FACE_OUTER_BOUND('',#1810,.T.);
#1830=ADVANCED_FACE('',(#1820),#1710,.T.);
#1840=CARTESIAN_POINT('',(-2.2,10.0000000000001,0.));
#1850=DIRECTION('',(0.,0.,-1.));
#1860=VECTOR('',#1850,1.);
#1870=LINE('',#1840,#1860);
#1880=EDGE_CURVE('',#450,#850,#1870,.T.);
#1890=ORIENTED_EDGE('',*,*,#1880,.F.);
#1900=ORIENTED_EDGE('',*,*,#860,.T.);
#1910=CARTESIAN_POINT('',(-2.2,5.,0.));
#1920=DIRECTION('',(0.,0.,-1.));
#1930=VECTOR('',#1920,1.);
#1940=LINE('',#1910,#1930);
#1950=EDGE_CURVE('',#530,#830,#1940,.T.);
#1960=ORIENTED_EDGE('',*,*,#1950,.T.);
#1970=ORIENTED_EDGE('',*,*,#540,.F.);
#1980=EDGE_LOOP('',(#1970,#1960,#1900,#1890));
#1990=FACE_OUTER_BOUND('',#1980,.T.);
#2000=ADVANCED_FACE('',(#1990),#1710,.T.);
#2010=CARTESIAN_POINT('',(-2.1,5.,-10.));
#2020=DIRECTION('',(2.22044604925031E-16,1.,0.));
#2030=DIRECTION('',(1.,-2.22044604925031E-16,0.));
#2040=AXIS2_PLACEMENT_3D('',#2010,#2020,#2030);
#2050=PLANE('',#2040);
#2060=ORIENTED_EDGE('',*,*,#1950,.F.);
#2070=ORIENTED_EDGE('',*,*,#1400,.T.);
#2080=CARTESIAN_POINT('',(0.8,5.,-10.));
#2090=DIRECTION('',(0.,0.,1.));
#2100=VECTOR('',#2090,1.);
#2110=LINE('',#2080,#2100);
#2120=EDGE_CURVE('',#1330,#610,#2110,.T.);
#2130=ORIENTED_EDGE('',*,*,#2120,.F.);
#2140=ORIENTED_EDGE('',*,*,#620,.T.);
#2150=EDGE_LOOP('',(#2140,#2130,#2070,#2060));
#2160=FACE_OUTER_BOUND('',#2150,.T.);
#2170=ADVANCED_FACE('',(#2160),#2050,.T.);
#2180=CARTESIAN_POINT('',(0.8,5.,-10.));
#2190=DIRECTION('',(1.,-2.22044604925031E-16,0.));
#2200=DIRECTION('',(2.22044604925031E-16,1.,0.));
#2210=AXIS2_PLACEMENT_3D('',#2180,#2190,#2200);
#2220=PLANE('',#2210);
#2230=CARTESIAN_POINT('',(0.799999999999998,-2.9582283945788E-31,22.5));
#2240=DIRECTION('',(1.,-2.22044604925031E-16,0.));
#2250=DIRECTION('',(-2.22044604925031E-16,-1.,0.));
#2260=AXIS2_PLACEMENT_3D('',#2230,#2240,#2250);
#2270=CIRCLE('',#2260,4.);
#2280=CARTESIAN_POINT('',(0.799999999999998,-4.,22.5));
#2290=VERTEX_POINT('',#2280);
#2300=CARTESIAN_POINT('',(0.799999999999999,4.,22.5));
#2310=VERTEX_POINT('',#2300);
#2320=EDGE_CURVE('',#2290,#2310,#2270,.T.);
#2330=ORIENTED_EDGE('',*,*,#2320,.F.);
#2340=EDGE_CURVE('',#2310,#2290,#2270,.T.);
#2350=ORIENTED_EDGE('',*,*,#2340,.F.);
#2360=EDGE_LOOP('',(#2350,#2330));
#2370=FACE_BOUND('',#2360,.T.);
#2380=CARTESIAN_POINT('',(0.799999999999998,-2.9582283945788E-31,-2.5));
#2390=DIRECTION('',(1.,-2.22044604925031E-16,0.));
#2400=DIRECTION('',(-2.22044604925031E-16,-1.,0.));
#2410=AXIS2_PLACEMENT_3D('',#2380,#2390,#2400);
#2420=CIRCLE('',#2410,4.);
#2430=CARTESIAN_POINT('',(0.799999999999998,-4.,-2.5));
#2440=VERTEX_POINT('',#2430);
#2450=CARTESIAN_POINT('',(0.799999999999999,4.,-2.5));
#2460=VERTEX_POINT('',#2450);
#2470=EDGE_CURVE('',#2440,#2460,#2420,.T.);
#2480=ORIENTED_EDGE('',*,*,#2470,.F.);
#2490=EDGE_CURVE('',#2460,#2440,#2420,.T.);
#2500=ORIENTED_EDGE('',*,*,#2490,.F.);
#2510=EDGE_LOOP('',(#2500,#2480));
#2520=FACE_BOUND('',#2510,.T.);
#2530=ORIENTED_EDGE('',*,*,#2120,.T.);
#2540=ORIENTED_EDGE('',*,*,#1340,.T.);
#2550=ORIENTED_EDGE('',*,*,#1540,.F.);
#2560=ORIENTED_EDGE('',*,*,#680,.T.);
#2570=EDGE_LOOP('',(#2560,#2550,#2540,#2530));
#2580=FACE_OUTER_BOUND('',#2570,.T.);
#2590=ADVANCED_FACE('',(#2370,#2520,#2580),#2220,.T.);
#2600=CARTESIAN_POINT('',(-6.99999999999997,10.0000000000001,-10.));
#2610=DIRECTION('',(2.22044604925031E-16,1.,0.));
#2620=DIRECTION('',(1.,-2.22044604925031E-16,0.));
#2630=AXIS2_PLACEMENT_3D('',#2600,#2610,#2620);
#2640=PLANE('',#2630);
#2650=CARTESIAN_POINT('',(-8.99999999999997,10.0000000000001,-10.));
#2660=DIRECTION('',(0.,0.,1.));
#2670=VECTOR('',#2660,1.);
#2680=LINE('',#2650,#2670);
#2690=EDGE_CURVE('',#930,#370,#2680,.T.);
#2700=ORIENTED_EDGE('',*,*,#2690,.T.);
#2710=ORIENTED_EDGE('',*,*,#940,.T.);
#2720=ORIENTED_EDGE('',*,*,#1880,.T.);
#2730=ORIENTED_EDGE('',*,*,#460,.T.);
#2740=EDGE_LOOP('',(#2730,#2720,#2710,#2700));
#2750=FACE_OUTER_BOUND('',#2740,.T.);
#2760=ADVANCED_FACE('',(#2750),#2640,.T.);
#2770=CARTESIAN_POINT('',(-8.99999999999998,-10.,-10.));
#2780=DIRECTION('',(-1.,2.22044604925031E-16,0.));
#2790=DIRECTION('',(2.22044604925031E-16,1.,0.));
#2800=AXIS2_PLACEMENT_3D('',#2770,#2780,#2790);
#2810=PLANE('',#2800);
#2820=CARTESIAN_POINT('',(-8.99999999999998,1.4654943925052E-15,22.5));
#2830=DIRECTION('',(1.,-2.22044604925031E-16,0.));
#2840=DIRECTION('',(-2.22044604925031E-16,-1.,0.));
#2850=AXIS2_PLACEMENT_3D('',#2820,#2830,#2840);
#2860=CIRCLE('',#2850,3.99999972024993);
#2870=CARTESIAN_POINT('',(-8.99999999999998,-3.99999972024993,22.5));
#2880=VERTEX_POINT('',#2870);
#2890=CARTESIAN_POINT('',(-8.99999999999998,3.99999972024993,22.5));
#2900=VERTEX_POINT('',#2890);
#2910=EDGE_CURVE('',#2880,#2900,#2860,.T.);
#2920=ORIENTED_EDGE('',*,*,#2910,.T.);
#2930=EDGE_CURVE('',#2900,#2880,#2860,.T.);
#2940=ORIENTED_EDGE('',*,*,#2930,.T.);
#2950=EDGE_LOOP('',(#2940,#2920));
#2960=FACE_BOUND('',#2950,.T.);
#2970=CARTESIAN_POINT('',(-8.99999999999998,1.4654943925052E-15,-2.5));
#2980=DIRECTION('',(1.,-2.22044604925031E-16,0.));
#2990=DIRECTION('',(-2.22044604925031E-16,-1.,0.));
#3000=AXIS2_PLACEMENT_3D('',#2970,#2980,#2990);
#3010=CIRCLE('',#3000,3.99999972024993);
#3020=CARTESIAN_POINT('',(-8.99999999999998,-3.99999972024993,-2.5));
#3030=VERTEX_POINT('',#3020);
#3040=CARTESIAN_POINT('',(-8.99999999999998,3.99999972024993,-2.5));
#3050=VERTEX_POINT('',#3040);
#3060=EDGE_CURVE('',#3030,#3050,#3010,.T.);
#3070=ORIENTED_EDGE('',*,*,#3060,.T.);
#3080=EDGE_CURVE('',#3050,#3030,#3010,.T.);
#3090=ORIENTED_EDGE('',*,*,#3080,.T.);
#3100=EDGE_LOOP('',(#3090,#3070));
#3110=FACE_BOUND('',#3100,.T.);
#3120=CARTESIAN_POINT('',(-8.99999999999998,-10.,-10.));
#3130=DIRECTION('',(0.,0.,1.));
#3140=VECTOR('',#3130,1.);
#3150=LINE('',#3120,#3140);
#3160=EDGE_CURVE('',#1010,#290,#3150,.T.);
#3170=ORIENTED_EDGE('',*,*,#3160,.T.);
#3180=ORIENTED_EDGE('',*,*,#1020,.T.);
#3190=ORIENTED_EDGE('',*,*,#2690,.F.);
#3200=ORIENTED_EDGE('',*,*,#380,.T.);
#3210=EDGE_LOOP('',(#3200,#3190,#3180,#3170));
#3220=FACE_OUTER_BOUND('',#3210,.T.);
#3230=ADVANCED_FACE('',(#2960,#3110,#3220),#2810,.T.);
#3240=CARTESIAN_POINT('',(-2.1,-10.,-10.));
#3250=DIRECTION('',(-2.22044604925031E-16,-1.,0.));
#3260=DIRECTION('',(1.,-2.22044604925031E-16,0.));
#3270=AXIS2_PLACEMENT_3D('',#3240,#3250,#3260);
#3280=PLANE('',#3270);
#3290=ORIENTED_EDGE('',*,*,#1780,.T.);
#3300=ORIENTED_EDGE('',*,*,#1100,.T.);
#3310=ORIENTED_EDGE('',*,*,#3160,.F.);
#3320=ORIENTED_EDGE('',*,*,#300,.T.);
#3330=EDGE_LOOP('',(#3320,#3310,#3300,#3290));
#3340=FACE_OUTER_BOUND('',#3330,.T.);
#3350=ADVANCED_FACE('',(#3340),#3280,.T.);
#3360=CARTESIAN_POINT('',(-0.600000000000001,0.,-2.5));
#3370=DIRECTION('',(1.,-2.22044604925031E-16,0.));
#3380=DIRECTION('',(-2.22044604925031E-16,-1.,0.));
#3390=AXIS2_PLACEMENT_3D('',#3360,#3370,#3380);
#3400=CYLINDRICAL_SURFACE('',#3390,3.4);
#3410=CARTESIAN_POINT('',(-0.600000000000001,3.4,-2.5));
#3420=DIRECTION('',(1.,-2.22044604925031E-16,0.));
#3430=VECTOR('',#3420,1.);
#3440=LINE('',#3410,#3430);
#3450=CARTESIAN_POINT('',(-8.65358999999998,3.4,-2.5));
#3460=VERTEX_POINT('',#3450);
#3470=CARTESIAN_POINT('',(0.453589838486224,3.4,-2.5));
#3480=VERTEX_POINT('',#3470);
#3490=EDGE_CURVE('',#3460,#3480,#3440,.T.);
#3500=ORIENTED_EDGE('',*,*,#3490,.T.);
#3510=CARTESIAN_POINT('',(-8.65358999999998,1.38857592091312E-15,-2.5));
#3520=DIRECTION('',(1.,-2.22044604925031E-16,0.));
#3530=DIRECTION('',(-2.22044604925031E-16,-1.,0.));
#3540=AXIS2_PLACEMENT_3D('',#3510,#3520,#3530);
#3550=CIRCLE('',#3540,3.4);
#3560=CARTESIAN_POINT('',(-8.65358999999998,-3.4,-2.5));
#3570=VERTEX_POINT('',#3560);
#3580=EDGE_CURVE('',#3460,#3570,#3550,.T.);
#3590=ORIENTED_EDGE('',*,*,#3580,.F.);
#3600=CARTESIAN_POINT('',(-0.600000000000002,-3.4,-2.5));
#3610=DIRECTION('',(1.,-2.22044604925031E-16,0.));
#3620=VECTOR('',#3610,1.);
#3630=LINE('',#3600,#3620);
#3640=CARTESIAN_POINT('',(0.453589838486222,-3.4,-2.5));
#3650=VERTEX_POINT('',#3640);
#3660=EDGE_CURVE('',#3570,#3650,#3630,.T.);
#3670=ORIENTED_EDGE('',*,*,#3660,.F.);
#3680=CARTESIAN_POINT('',(0.453589838486223,7.69185074553422E-17,-2.5));
#3690=DIRECTION('',(1.,-2.22044604925031E-16,0.));
#3700=DIRECTION('',(-2.22044604925031E-16,-1.,0.));
#3710=AXIS2_PLACEMENT_3D('',#3680,#3690,#3700);
#3720=CIRCLE('',#3710,3.4);
#3730=EDGE_CURVE('',#3480,#3650,#3720,.T.);
#3740=ORIENTED_EDGE('',*,*,#3730,.T.);
#3750=EDGE_LOOP('',(#3740,#3670,#3590,#3500));
#3760=FACE_OUTER_BOUND('',#3750,.T.);
#3770=ADVANCED_FACE('M8x1.25_2234047',(#3760),#3400,.F.);
#3780=COLOUR_RGB('',1.,0.,0.);
#3790=FILL_AREA_STYLE_COLOUR('',#3780);
#3800=FILL_AREA_STYLE('',(#3790));
#3810=SURFACE_STYLE_FILL_AREA(#3800);
#3820=SURFACE_SIDE_STYLE('',(#3810));
#3830=SURFACE_STYLE_USAGE(.BOTH.,#3820);
#3840=PRESENTATION_STYLE_ASSIGNMENT((#3830));
#3850=CARTESIAN_POINT('',(-0.600000000000001,0.,22.5));
#3860=DIRECTION('',(1.,-2.22044604925031E-16,0.));
#3870=DIRECTION('',(-2.22044604925031E-16,-1.,0.));
#3880=AXIS2_PLACEMENT_3D('',#3850,#3860,#3870);
#3890=CYLINDRICAL_SURFACE('',#3880,3.4);
#3900=CARTESIAN_POINT('',(-0.600000000000001,3.4,22.5));
#3910=DIRECTION('',(1.,-2.22044604925031E-16,0.));
#3920=VECTOR('',#3910,1.);
#3930=LINE('',#3900,#3920);
#3940=CARTESIAN_POINT('',(-8.65358999999998,3.4,22.5));
#3950=VERTEX_POINT('',#3940);
#3960=CARTESIAN_POINT('',(0.453589838486224,3.4,22.5));
#3970=VERTEX_POINT('',#3960);
#3980=EDGE_CURVE('',#3950,#3970,#3930,.T.);
#3990=ORIENTED_EDGE('',*,*,#3980,.T.);
#4000=CARTESIAN_POINT('',(-8.65358999999998,1.38857592091312E-15,22.5));
#4010=DIRECTION('',(1.,-2.22044604925031E-16,0.));
#4020=DIRECTION('',(-2.22044604925031E-16,-1.,0.));
#4030=AXIS2_PLACEMENT_3D('',#4000,#4010,#4020);
#4040=CIRCLE('',#4030,3.4);
#4050=CARTESIAN_POINT('',(-8.65358999999998,-3.4,22.5));
#4060=VERTEX_POINT('',#4050);
#4070=EDGE_CURVE('',#3950,#4060,#4040,.T.);
#4080=ORIENTED_EDGE('',*,*,#4070,.F.);
#4090=CARTESIAN_POINT('',(-0.600000000000002,-3.4,22.5));
#4100=DIRECTION('',(1.,-2.22044604925031E-16,0.));
#4110=VECTOR('',#4100,1.);
#4120=LINE('',#4090,#4110);
#4130=CARTESIAN_POINT('',(0.453589838486222,-3.4,22.5));
#4140=VERTEX_POINT('',#4130);
#4150=EDGE_CURVE('',#4060,#4140,#4120,.T.);
#4160=ORIENTED_EDGE('',*,*,#4150,.F.);
#4170=CARTESIAN_POINT('',(0.453589838486223,7.69185074553422E-17,22.5));
#4180=DIRECTION('',(1.,-2.22044604925031E-16,0.));
#4190=DIRECTION('',(-2.22044604925031E-16,-1.,0.));
#4200=AXIS2_PLACEMENT_3D('',#4170,#4180,#4190);
#4210=CIRCLE('',#4200,3.4);
#4220=EDGE_CURVE('',#3970,#4140,#4210,.T.);
#4230=ORIENTED_EDGE('',*,*,#4220,.T.);
#4240=EDGE_LOOP('',(#4230,#4160,#4080,#3990));
#4250=FACE_OUTER_BOUND('',#4240,.T.);
#4260=ADVANCED_FACE('M8x1.25_2263386',(#4250),#3890,.F.);
#4270=COLOUR_RGB('',1.,0.,0.);
#4280=FILL_AREA_STYLE_COLOUR('',#4270);
#4290=FILL_AREA_STYLE('',(#4280));
#4300=SURFACE_STYLE_FILL_AREA(#4290);
#4310=SURFACE_SIDE_STYLE('',(#4300));
#4320=SURFACE_STYLE_USAGE(.BOTH.,#4310);
#4330=PRESENTATION_STYLE_ASSIGNMENT((#4320));
#4340=CARTESIAN_POINT('',(-8.65358999999998,1.38857592091312E-15,22.5));
#4350=DIRECTION('',(-1.,2.22044604925031E-16,0.));
#4360=DIRECTION('',(2.22044604925031E-16,1.,0.));
#4370=AXIS2_PLACEMENT_3D('',#4340,#4350,#4360);
#4380=CONICAL_SURFACE('',#4370,3.4,1.0471975511966);
#4390=CARTESIAN_POINT('',(-8.65358999999998,3.4,22.5));
#4400=DIRECTION('',(-0.5,0.866025403784439,0.));
#4410=VECTOR('',#4400,3.92598183048946);
#4420=LINE('',#4390,#4410);
#4430=EDGE_CURVE('',#3950,#2900,#4420,.T.);
#4440=ORIENTED_EDGE('',*,*,#4430,.F.);
#4450=ORIENTED_EDGE('',*,*,#2930,.F.);
#4460=CARTESIAN_POINT('',(-8.65358999999998,-3.4,22.5));
#4470=DIRECTION('',(-0.5,-0.866025403784439,0.));
#4480=VECTOR('',#4470,3.92598183048946);
#4490=LINE('',#4460,#4480);
#4500=EDGE_CURVE('',#4060,#2880,#4490,.T.);
#4510=ORIENTED_EDGE('',*,*,#4500,.T.);
#4520=ORIENTED_EDGE('',*,*,#4070,.T.);
#4530=EDGE_LOOP('',(#4520,#4510,#4450,#4440));
#4540=FACE_OUTER_BOUND('',#4530,.T.);
#4550=ADVANCED_FACE('',(#4540),#4380,.F.);
#4560=CARTESIAN_POINT('',(-8.65358999999998,1.38857592091312E-15,-2.5));
#4570=DIRECTION('',(-1.,2.22044604925031E-16,0.));
#4580=DIRECTION('',(2.22044604925031E-16,1.,0.));
#4590=AXIS2_PLACEMENT_3D('',#4560,#4570,#4580);
#4600=CONICAL_SURFACE('',#4590,3.4,1.0471975511966);
#4610=CARTESIAN_POINT('',(-8.65358999999998,3.4,-2.5));
#4620=DIRECTION('',(-0.5,0.866025403784439,0.));
#4630=VECTOR('',#4620,3.92598183048946);
#4640=LINE('',#4610,#4630);
#4650=EDGE_CURVE('',#3460,#3050,#4640,.T.);
#4660=ORIENTED_EDGE('',*,*,#4650,.F.);
#4670=ORIENTED_EDGE('',*,*,#3080,.F.);
#4680=CARTESIAN_POINT('',(-8.65358999999998,-3.4,-2.5));
#4690=DIRECTION('',(-0.5,-0.866025403784439,-1.1311545214021E-16));
#4700=VECTOR('',#4690,3.92598183048946);
#4710=LINE('',#4680,#4700);
#4720=EDGE_CURVE('',#3570,#3030,#4710,.T.);
#4730=ORIENTED_EDGE('',*,*,#4720,.T.);
#4740=ORIENTED_EDGE('',*,*,#3580,.T.);
#4750=EDGE_LOOP('',(#4740,#4730,#4670,#4660));
#4760=FACE_OUTER_BOUND('',#4750,.T.);
#4770=ADVANCED_FACE('',(#4760),#4600,.F.);
#4780=CARTESIAN_POINT('',(0.453589838486223,7.69185074553422E-17,-2.5));
#4790=DIRECTION('',(1.,-2.22044604925031E-16,0.));
#4800=DIRECTION('',(-2.22044604925031E-16,-1.,0.));
#4810=AXIS2_PLACEMENT_3D('',#4780,#4790,#4800);
#4820=CONICAL_SURFACE('',#4810,3.4,1.0471975511966);
#4830=CARTESIAN_POINT('',(0.453589838486222,-3.4,-2.5));
#4840=DIRECTION('',(0.5,-0.866025403784439,0.));
#4850=VECTOR('',#4840,3.92598183048945);
#4860=LINE('',#4830,#4850);
#4870=EDGE_CURVE('',#3650,#2440,#4860,.T.);
#4880=ORIENTED_EDGE('',*,*,#4870,.F.);
#4890=ORIENTED_EDGE('',*,*,#2490,.T.);
#4900=CARTESIAN_POINT('',(0.453589838486224,3.4,-2.5));
#4910=DIRECTION('',(0.5,0.866025403784438,-1.1311545214021E-16));
#4920=VECTOR('',#4910,3.92598183048946);
#4930=LINE('',#4900,#4920);
#4940=EDGE_CURVE('',#3480,#2460,#4930,.T.);
#4950=ORIENTED_EDGE('',*,*,#4940,.T.);
#4960=ORIENTED_EDGE('',*,*,#3730,.F.);
#4970=EDGE_LOOP('',(#4960,#4950,#4890,#4880));
#4980=FACE_OUTER_BOUND('',#4970,.T.);
#4990=ADVANCED_FACE('',(#4980),#4820,.F.);
#5000=CARTESIAN_POINT('',(0.453589838486223,7.69185074553422E-17,22.5));
#5010=DIRECTION('',(1.,-2.22044604925031E-16,0.));
#5020=DIRECTION('',(-2.22044604925031E-16,-1.,0.));
#5030=AXIS2_PLACEMENT_3D('',#5000,#5010,#5020);
#5040=CONICAL_SURFACE('',#5030,3.4,1.0471975511966);
#5050=CARTESIAN_POINT('',(0.453589838486222,-3.4,22.5));
#5060=DIRECTION('',(0.5,-0.866025403784439,0.));
#5070=VECTOR('',#5060,3.92598183048945);
#5080=LINE('',#5050,#5070);
#5090=EDGE_CURVE('',#4140,#2290,#5080,.T.);
#5100=ORIENTED_EDGE('',*,*,#5090,.F.);
#5110=ORIENTED_EDGE('',*,*,#2340,.T.);
#5120=CARTESIAN_POINT('',(0.453589838486224,3.4,22.5));
#5130=DIRECTION('',(0.5,0.866025403784438,0.));
#5140=VECTOR('',#5130,3.92598183048946);
#5150=LINE('',#5120,#5140);
#5160=EDGE_CURVE('',#3970,#2310,#5150,.T.);
#5170=ORIENTED_EDGE('',*,*,#5160,.T.);
#5180=ORIENTED_EDGE('',*,*,#4220,.F.);
#5190=EDGE_LOOP('',(#5180,#5170,#5110,#5100));
#5200=FACE_OUTER_BOUND('',#5190,.T.);
#5210=ADVANCED_FACE('',(#5200),#5040,.F.);
#5220=CARTESIAN_POINT('',(0.453589838486223,7.69185074553422E-17,22.5));
#5230=DIRECTION('',(1.,-2.22044604925031E-16,0.));
#5240=DIRECTION('',(-2.22044604925031E-16,-1.,0.));
#5250=AXIS2_PLACEMENT_3D('',#5220,#5230,#5240);
#5260=CONICAL_SURFACE('',#5250,3.4,1.0471975511966);
#5270=EDGE_CURVE('',#4140,#3970,#4210,.T.);
#5280=ORIENTED_EDGE('',*,*,#5270,.F.);
#5290=ORIENTED_EDGE('',*,*,#5160,.F.);
#5300=ORIENTED_EDGE('',*,*,#2320,.T.);
#5310=ORIENTED_EDGE('',*,*,#5090,.T.);
#5320=EDGE_LOOP('',(#5310,#5300,#5290,#5280));
#5330=FACE_OUTER_BOUND('',#5320,.T.);
#5340=ADVANCED_FACE('',(#5330),#5260,.F.);
#5350=CARTESIAN_POINT('',(-8.65358999999998,1.38857592091312E-15,-2.5));
#5360=DIRECTION('',(-1.,2.22044604925031E-16,0.));
#5370=DIRECTION('',(2.22044604925031E-16,1.,0.));
#5380=AXIS2_PLACEMENT_3D('',#5350,#5360,#5370);
#5390=CONICAL_SURFACE('',#5380,3.4,1.0471975511966);
#5400=EDGE_CURVE('',#3570,#3460,#3550,.T.);
#5410=ORIENTED_EDGE('',*,*,#5400,.T.);
#5420=ORIENTED_EDGE('',*,*,#4720,.F.);
#5430=ORIENTED_EDGE('',*,*,#3060,.F.);
#5440=ORIENTED_EDGE('',*,*,#4650,.T.);
#5450=EDGE_LOOP('',(#5440,#5430,#5420,#5410));
#5460=FACE_OUTER_BOUND('',#5450,.T.);
#5470=ADVANCED_FACE('',(#5460),#5390,.F.);
#5480=CARTESIAN_POINT('',(-8.65358999999998,1.38857592091312E-15,22.5));
#5490=DIRECTION('',(-1.,2.22044604925031E-16,0.));
#5500=DIRECTION('',(2.22044604925031E-16,1.,0.));
#5510=AXIS2_PLACEMENT_3D('',#5480,#5490,#5500);
#5520=CONICAL_SURFACE('',#5510,3.4,1.0471975511966);
#5530=EDGE_CURVE('',#4060,#3950,#4040,.T.);
#5540=ORIENTED_EDGE('',*,*,#5530,.T.);
#5550=ORIENTED_EDGE('',*,*,#4500,.F.);
#5560=ORIENTED_EDGE('',*,*,#2910,.F.);
#5570=ORIENTED_EDGE('',*,*,#4430,.T.);
#5580=EDGE_LOOP('',(#5570,#5560,#5550,#5540));
#5590=FACE_OUTER_BOUND('',#5580,.T.);
#5600=ADVANCED_FACE('',(#5590),#5520,.F.);
#5610=CARTESIAN_POINT('',(-0.600000000000001,0.,22.5));
#5620=DIRECTION('',(1.,-2.22044604925031E-16,0.));
#5630=DIRECTION('',(-2.22044604925031E-16,-1.,0.));
#5640=AXIS2_PLACEMENT_3D('',#5610,#5620,#5630);
#5650=CYLINDRICAL_SURFACE('',#5640,3.4);
#5660=ORIENTED_EDGE('',*,*,#5530,.F.);
#5670=ORIENTED_EDGE('',*,*,#3980,.F.);
#5680=ORIENTED_EDGE('',*,*,#5270,.T.);
#5690=ORIENTED_EDGE('',*,*,#4150,.T.);
#5700=EDGE_LOOP('',(#5690,#5680,#5670,#5660));
#5710=FACE_OUTER_BOUND('',#5700,.T.);
#5720=ADVANCED_FACE('',(#5710),#5650,.F.);
#5730=COLOUR_RGB('',1.,0.,0.);
#5740=FILL_AREA_STYLE_COLOUR('',#5730);
#5750=FILL_AREA_STYLE('',(#5740));
#5760=SURFACE_STYLE_FILL_AREA(#5750);
#5770=SURFACE_SIDE_STYLE('',(#5760));
#5780=SURFACE_STYLE_USAGE(.BOTH.,#5770);
#5790=PRESENTATION_STYLE_ASSIGNMENT((#5780));
#5800=CARTESIAN_POINT('',(0.453589838486223,7.69185074553422E-17,-2.5));
#5810=DIRECTION('',(1.,-2.22044604925031E-16,0.));
#5820=DIRECTION('',(-2.22044604925031E-16,-1.,0.));
#5830=AXIS2_PLACEMENT_3D('',#5800,#5810,#5820);
#5840=CONICAL_SURFACE('',#5830,3.4,1.0471975511966);
#5850=EDGE_CURVE('',#3650,#3480,#3720,.T.);
#5860=ORIENTED_EDGE('',*,*,#5850,.F.);
#5870=ORIENTED_EDGE('',*,*,#4940,.F.);
#5880=ORIENTED_EDGE('',*,*,#2470,.T.);
#5890=ORIENTED_EDGE('',*,*,#4870,.T.);
#5900=EDGE_LOOP('',(#5890,#5880,#5870,#5860));
#5910=FACE_OUTER_BOUND('',#5900,.T.);
#5920=ADVANCED_FACE('',(#5910),#5840,.F.);
#5930=CARTESIAN_POINT('',(-0.600000000000001,0.,-2.5));
#5940=DIRECTION('',(1.,-2.22044604925031E-16,0.));
#5950=DIRECTION('',(-2.22044604925031E-16,-1.,0.));
#5960=AXIS2_PLACEMENT_3D('',#5930,#5940,#5950);
#5970=CYLINDRICAL_SURFACE('',#5960,3.4);
#5980=ORIENTED_EDGE('',*,*,#5400,.F.);
#5990=ORIENTED_EDGE('',*,*,#3490,.F.);
#6000=ORIENTED_EDGE('',*,*,#5850,.T.);
#6010=ORIENTED_EDGE('',*,*,#3660,.T.);
#6020=EDGE_LOOP('',(#6010,#6000,#5990,#5980));
#6030=FACE_OUTER_BOUND('',#6020,.T.);
#6040=ADVANCED_FACE('',(#6030),#5970,.F.);
#6050=COLOUR_RGB('',1.,0.,0.);
#6060=FILL_AREA_STYLE_COLOUR('',#6050);
#6070=FILL_AREA_STYLE('',(#6060));
#6080=SURFACE_STYLE_FILL_AREA(#6070);
#6090=SURFACE_SIDE_STYLE('',(#6080));
#6100=SURFACE_STYLE_USAGE(.BOTH.,#6090);
#6110=PRESENTATION_STYLE_ASSIGNMENT((#6100));
#6120=CLOSED_SHELL('',(#720,#1440,#1660,#1830,#2000,#2170,#2590,#2760,
#3230,#3350,#3770,#4260,#4550,#4770,#4990,#5210,#5340,#5470,#5600,#5720,
#5920,#6040));
#6130=MANIFOLD_SOLID_BREP('',#6120);
#6140=CARTESIAN_POINT('',(0.,0.,0.));
#6150=DIRECTION('',(0.,0.,1.));
#6160=DIRECTION('',(1.,0.,0.));
#6170=AXIS2_PLACEMENT_3D('',#6140,#6150,#6160);
#6180=APPLICATION_CONTEXT(' ');
#6190=APPLICATION_PROTOCOL_DEFINITION(' ','automotive_design',1998,#6180
);
#6200=PRODUCT_CONTEXT('',#6180,'mechanical');
#6210=PRODUCT_DEFINITION_CONTEXT('part definition',#6180,'design');
#6220=PRODUCT('327218-1644901564-10e7c6305d1b-02657097',
'327218-1644901564-10e7c6305d1b-02657097','',(#6200));
#6230=PRODUCT_RELATED_PRODUCT_CATEGORY('part',' ',(#6220));
#6240=PRODUCT_DEFINITION_FORMATION_WITH_SPECIFIED_SOURCE('','',#6220,
.BOUGHT.);
#6250=PRODUCT_DEFINITION('',' ',#6240,#6210);
#6260=PRODUCT_DEFINITION_SHAPE('','',#6250);
#6270=DIMENSIONAL_EXPONENTS(1.,0.,0.,0.,0.,0.,0.);
#6280=DIMENSIONAL_EXPONENTS(0.,0.,0.,0.,0.,0.,0.);
#6290=DIMENSIONAL_EXPONENTS(0.,0.,0.,0.,0.,0.,0.);
#6300=(LENGTH_UNIT() NAMED_UNIT(*) SI_UNIT(.MILLI.,.METRE.));
#6310=(NAMED_UNIT(*) PLANE_ANGLE_UNIT() SI_UNIT($,.RADIAN.));
#6320=(NAMED_UNIT(*) SI_UNIT($,.STERADIAN.) SOLID_ANGLE_UNIT());
#6330=(GEOMETRIC_REPRESENTATION_CONTEXT(3) 
GLOBAL_UNCERTAINTY_ASSIGNED_CONTEXT((#6340)) 
GLOBAL_UNIT_ASSIGNED_CONTEXT((#6300,#6310,#6320)) REPRESENTATION_CONTEXT
('',''));
#6340=UNCERTAINTY_MEASURE_WITH_UNIT(LENGTH_MEASURE(1.E-6),#6300,
'distance_accuracy_value','maximum gap value');
#6350=ADVANCED_BREP_SHAPE_REPRESENTATION('',(#6170,#6130),#6330);
#6360=SHAPE_DEFINITION_REPRESENTATION(#6260,#6350);
#6370=COLOUR_RGB('',0.690196096897125,0.886274576187134,1.);
#6380=FILL_AREA_STYLE_COLOUR('',#6370);
#6390=FILL_AREA_STYLE('',(#6380));
#6400=SURFACE_STYLE_FILL_AREA(#6390);
#6410=SURFACE_SIDE_STYLE('',(#6400));
#6420=SURFACE_STYLE_USAGE(.BOTH.,#6410);
#6430=PRESENTATION_STYLE_ASSIGNMENT((#6420));
#6440=STYLED_ITEM('',(#6430),#6130);
#6450=OVER_RIDING_STYLED_ITEM('',(#3840),#3770,#6440);
#6460=OVER_RIDING_STYLED_ITEM('',(#4330),#4260,#6440);
#6470=OVER_RIDING_STYLED_ITEM('',(#5790),#5720,#6440);
#6480=OVER_RIDING_STYLED_ITEM('',(#6110),#6040,#6440);
#6490=DRAUGHTING_MODEL('',(#6440,#6450,#6460,#6470,#6480),#6330);
ENDSEC;
END-ISO-10303-21;
