ISO-10303-21;
HEADER;
FILE_DESCRIPTION(('Creo Elements/Direct Modeling STEP Export'),'2;1');
FILE_NAME(
'//KR-CAD2/PhoenixTemp/karl.letzgus/Konvertierung/55.0390_Abschlu\S\_win
kel-MMS-55_60x50x50x6.stp','2022-03-21T 8:08:55',(''),(''),
'PTC Creo Elements/Direct Modeling STEP processor for AP214 (Solid Model
)',
'PTC Creo Elements/Direct Modeling 19.0C  15-Aug-2015 (C) Parametric Tec
hnology GmbH','');
FILE_SCHEMA(('AUTOMOTIVE_DESIGN { 1 0 10303 214 1 1 1 1 }'));
ENDSEC;
DATA;
#10=CARTESIAN_POINT('',(0.,0.,0.));
#20=DIRECTION('',(0.,0.,1.));
#30=DIRECTION('',(1.,0.,0.));
#40=AXIS2_PLACEMENT_3D('',#10,#20,#30);
#50=PLANE('',#40);
#60=CARTESIAN_POINT('',(0.,0.,0.));
#70=DIRECTION('',(1.,0.,0.));
#80=VECTOR('',#70,1.);
#90=LINE('',#60,#80);
#100=CARTESIAN_POINT('',(0.,0.,0.));
#110=VERTEX_POINT('',#100);
#120=CARTESIAN_POINT('',(60.,0.,0.));
#130=VERTEX_POINT('',#120);
#140=EDGE_CURVE('',#110,#130,#90,.T.);
#150=ORIENTED_EDGE('',*,*,#140,.F.);
#160=CARTESIAN_POINT('',(60.,0.,0.));
#170=DIRECTION('',(0.,1.,0.));
#180=VECTOR('',#170,1.);
#190=LINE('',#160,#180);
#200=CARTESIAN_POINT('',(60.,50.,0.));
#210=VERTEX_POINT('',#200);
#220=EDGE_CURVE('',#130,#210,#190,.T.);
#230=ORIENTED_EDGE('',*,*,#220,.F.);
#240=CARTESIAN_POINT('',(60.,50.,0.));
#250=DIRECTION('',(-1.,0.,0.));
#260=VECTOR('',#250,1.);
#270=LINE('',#240,#260);
#280=CARTESIAN_POINT('',(0.,50.,0.));
#290=VERTEX_POINT('',#280);
#300=EDGE_CURVE('',#210,#290,#270,.T.);
#310=ORIENTED_EDGE('',*,*,#300,.F.);
#320=CARTESIAN_POINT('',(0.,50.,0.));
#330=DIRECTION('',(0.,-1.,0.));
#340=VECTOR('',#330,1.);
#350=LINE('',#320,#340);
#360=EDGE_CURVE('',#290,#110,#350,.T.);
#370=ORIENTED_EDGE('',*,*,#360,.F.);
#380=EDGE_LOOP('',(#370,#310,#230,#150));
#390=FACE_OUTER_BOUND('',#380,.T.);
#400=CARTESIAN_POINT('',(7.5,42.5,0.));
#410=DIRECTION('',(0.,0.,1.));
#420=DIRECTION('',(1.,0.,0.));
#430=AXIS2_PLACEMENT_3D('',#400,#410,#420);
#440=CIRCLE('',#430,4.5);
#450=CARTESIAN_POINT('',(12.,42.5,0.));
#460=VERTEX_POINT('',#450);
#470=CARTESIAN_POINT('',(3.,42.5,0.));
#480=VERTEX_POINT('',#470);
#490=EDGE_CURVE('',#460,#480,#440,.T.);
#500=ORIENTED_EDGE('',*,*,#490,.T.);
#510=EDGE_CURVE('',#480,#460,#440,.T.);
#520=ORIENTED_EDGE('',*,*,#510,.T.);
#530=EDGE_LOOP('',(#520,#500));
#540=FACE_BOUND('',#530,.T.);
#550=CARTESIAN_POINT('',(42.5,42.5,0.));
#560=DIRECTION('',(0.,0.,1.));
#570=DIRECTION('',(1.,0.,0.));
#580=AXIS2_PLACEMENT_3D('',#550,#560,#570);
#590=CIRCLE('',#580,4.5);
#600=CARTESIAN_POINT('',(47.,42.5,0.));
#610=VERTEX_POINT('',#600);
#620=CARTESIAN_POINT('',(38.,42.5,0.));
#630=VERTEX_POINT('',#620);
#640=EDGE_CURVE('',#610,#630,#590,.T.);
#650=ORIENTED_EDGE('',*,*,#640,.T.);
#660=EDGE_CURVE('',#630,#610,#590,.T.);
#670=ORIENTED_EDGE('',*,*,#660,.T.);
#680=EDGE_LOOP('',(#670,#650));
#690=FACE_BOUND('',#680,.T.);
#700=CARTESIAN_POINT('',(42.5,7.5,0.));
#710=DIRECTION('',(0.,0.,1.));
#720=DIRECTION('',(1.,0.,0.));
#730=AXIS2_PLACEMENT_3D('',#700,#710,#720);
#740=CIRCLE('',#730,4.5);
#750=CARTESIAN_POINT('',(47.,7.5,0.));
#760=VERTEX_POINT('',#750);
#770=CARTESIAN_POINT('',(38.,7.5,0.));
#780=VERTEX_POINT('',#770);
#790=EDGE_CURVE('',#760,#780,#740,.T.);
#800=ORIENTED_EDGE('',*,*,#790,.T.);
#810=EDGE_CURVE('',#780,#760,#740,.T.);
#820=ORIENTED_EDGE('',*,*,#810,.T.);
#830=EDGE_LOOP('',(#820,#800));
#840=FACE_BOUND('',#830,.T.);
#850=CARTESIAN_POINT('',(7.5,7.50000000000001,0.));
#860=DIRECTION('',(0.,0.,1.));
#870=DIRECTION('',(1.,0.,0.));
#880=AXIS2_PLACEMENT_3D('',#850,#860,#870);
#890=CIRCLE('',#880,4.5);
#900=CARTESIAN_POINT('',(12.,7.50000000000001,0.));
#910=VERTEX_POINT('',#900);
#920=CARTESIAN_POINT('',(3.,7.50000000000001,0.));
#930=VERTEX_POINT('',#920);
#940=EDGE_CURVE('',#910,#930,#890,.T.);
#950=ORIENTED_EDGE('',*,*,#940,.T.);
#960=EDGE_CURVE('',#930,#910,#890,.T.);
#970=ORIENTED_EDGE('',*,*,#960,.T.);
#980=EDGE_LOOP('',(#970,#950));
#990=FACE_BOUND('',#980,.T.);
#1000=ADVANCED_FACE('',(#390,#540,#690,#840,#990),#50,.F.);
#1010=CARTESIAN_POINT('',(0.,0.,6.));
#1020=DIRECTION('',(0.,0.,1.));
#1030=DIRECTION('',(1.,0.,0.));
#1040=AXIS2_PLACEMENT_3D('',#1010,#1020,#1030);
#1050=PLANE('',#1040);
#1060=CARTESIAN_POINT('',(0.,0.,6.));
#1070=DIRECTION('',(1.,0.,0.));
#1080=VECTOR('',#1070,1.);
#1090=LINE('',#1060,#1080);
#1100=CARTESIAN_POINT('',(0.,0.,6.));
#1110=VERTEX_POINT('',#1100);
#1120=CARTESIAN_POINT('',(54.,0.,6.));
#1130=VERTEX_POINT('',#1120);
#1140=EDGE_CURVE('',#1110,#1130,#1090,.T.);
#1150=ORIENTED_EDGE('',*,*,#1140,.T.);
#1160=CARTESIAN_POINT('',(0.,50.,6.));
#1170=DIRECTION('',(0.,-1.,0.));
#1180=VECTOR('',#1170,1.);
#1190=LINE('',#1160,#1180);
#1200=CARTESIAN_POINT('',(0.,50.,6.));
#1210=VERTEX_POINT('',#1200);
#1220=EDGE_CURVE('',#1210,#1110,#1190,.T.);
#1230=ORIENTED_EDGE('',*,*,#1220,.T.);
#1240=CARTESIAN_POINT('',(60.,50.,6.));
#1250=DIRECTION('',(-1.,0.,0.));
#1260=VECTOR('',#1250,1.);
#1270=LINE('',#1240,#1260);
#1280=CARTESIAN_POINT('',(54.,50.,6.));
#1290=VERTEX_POINT('',#1280);
#1300=EDGE_CURVE('',#1290,#1210,#1270,.T.);
#1310=ORIENTED_EDGE('',*,*,#1300,.T.);
#1320=CARTESIAN_POINT('',(54.,0.,6.));
#1330=DIRECTION('',(0.,-1.,0.));
#1340=VECTOR('',#1330,1.);
#1350=LINE('',#1320,#1340);
#1360=EDGE_CURVE('',#1290,#1130,#1350,.T.);
#1370=ORIENTED_EDGE('',*,*,#1360,.F.);
#1380=EDGE_LOOP('',(#1370,#1310,#1230,#1150));
#1390=FACE_OUTER_BOUND('',#1380,.T.);
#1400=CARTESIAN_POINT('',(7.5,42.5,6.));
#1410=DIRECTION('',(0.,0.,1.));
#1420=DIRECTION('',(1.,0.,0.));
#1430=AXIS2_PLACEMENT_3D('',#1400,#1410,#1420);
#1440=CIRCLE('',#1430,4.5);
#1450=CARTESIAN_POINT('',(12.,42.5,6.));
#1460=VERTEX_POINT('',#1450);
#1470=CARTESIAN_POINT('',(3.,42.5,6.));
#1480=VERTEX_POINT('',#1470);
#1490=EDGE_CURVE('',#1460,#1480,#1440,.T.);
#1500=ORIENTED_EDGE('',*,*,#1490,.F.);
#1510=EDGE_CURVE('',#1480,#1460,#1440,.T.);
#1520=ORIENTED_EDGE('',*,*,#1510,.F.);
#1530=EDGE_LOOP('',(#1520,#1500));
#1540=FACE_BOUND('',#1530,.T.);
#1550=CARTESIAN_POINT('',(42.5,42.5,6.));
#1560=DIRECTION('',(0.,0.,1.));
#1570=DIRECTION('',(1.,0.,0.));
#1580=AXIS2_PLACEMENT_3D('',#1550,#1560,#1570);
#1590=CIRCLE('',#1580,4.5);
#1600=CARTESIAN_POINT('',(47.,42.5,6.));
#1610=VERTEX_POINT('',#1600);
#1620=CARTESIAN_POINT('',(38.,42.5,6.));
#1630=VERTEX_POINT('',#1620);
#1640=EDGE_CURVE('',#1610,#1630,#1590,.T.);
#1650=ORIENTED_EDGE('',*,*,#1640,.F.);
#1660=EDGE_CURVE('',#1630,#1610,#1590,.T.);
#1670=ORIENTED_EDGE('',*,*,#1660,.F.);
#1680=EDGE_LOOP('',(#1670,#1650));
#1690=FACE_BOUND('',#1680,.T.);
#1700=CARTESIAN_POINT('',(42.5,7.5,6.));
#1710=DIRECTION('',(0.,0.,1.));
#1720=DIRECTION('',(1.,0.,0.));
#1730=AXIS2_PLACEMENT_3D('',#1700,#1710,#1720);
#1740=CIRCLE('',#1730,4.5);
#1750=CARTESIAN_POINT('',(47.,7.5,6.));
#1760=VERTEX_POINT('',#1750);
#1770=CARTESIAN_POINT('',(38.,7.5,6.));
#1780=VERTEX_POINT('',#1770);
#1790=EDGE_CURVE('',#1760,#1780,#1740,.T.);
#1800=ORIENTED_EDGE('',*,*,#1790,.F.);
#1810=EDGE_CURVE('',#1780,#1760,#1740,.T.);
#1820=ORIENTED_EDGE('',*,*,#1810,.F.);
#1830=EDGE_LOOP('',(#1820,#1800));
#1840=FACE_BOUND('',#1830,.T.);
#1850=CARTESIAN_POINT('',(7.5,7.50000000000001,6.));
#1860=DIRECTION('',(0.,0.,1.));
#1870=DIRECTION('',(1.,0.,0.));
#1880=AXIS2_PLACEMENT_3D('',#1850,#1860,#1870);
#1890=CIRCLE('',#1880,4.5);
#1900=CARTESIAN_POINT('',(12.,7.50000000000001,6.));
#1910=VERTEX_POINT('',#1900);
#1920=CARTESIAN_POINT('',(3.,7.50000000000001,6.));
#1930=VERTEX_POINT('',#1920);
#1940=EDGE_CURVE('',#1910,#1930,#1890,.T.);
#1950=ORIENTED_EDGE('',*,*,#1940,.F.);
#1960=EDGE_CURVE('',#1930,#1910,#1890,.T.);
#1970=ORIENTED_EDGE('',*,*,#1960,.F.);
#1980=EDGE_LOOP('',(#1970,#1950));
#1990=FACE_BOUND('',#1980,.T.);
#2000=ADVANCED_FACE('',(#1390,#1540,#1690,#1840,#1990),#1050,.T.);
#2010=CARTESIAN_POINT('',(60.,0.,0.));
#2020=DIRECTION('',(-0.,-1.,-0.));
#2030=DIRECTION('',(-1.,0.,0.));
#2040=AXIS2_PLACEMENT_3D('',#2010,#2020,#2030);
#2050=PLANE('',#2040);
#2060=CARTESIAN_POINT('',(0.,0.,0.));
#2070=DIRECTION('',(0.,0.,1.));
#2080=VECTOR('',#2070,1.);
#2090=LINE('',#2060,#2080);
#2100=EDGE_CURVE('',#110,#1110,#2090,.T.);
#2110=ORIENTED_EDGE('',*,*,#2100,.F.);
#2120=ORIENTED_EDGE('',*,*,#1140,.F.);
#2130=CARTESIAN_POINT('',(54.,0.,6.));
#2140=DIRECTION('',(0.,0.,1.));
#2150=VECTOR('',#2140,1.);
#2160=LINE('',#2130,#2150);
#2170=CARTESIAN_POINT('',(54.,0.,50.));
#2180=VERTEX_POINT('',#2170);
#2190=EDGE_CURVE('',#1130,#2180,#2160,.T.);
#2200=ORIENTED_EDGE('',*,*,#2190,.F.);
#2210=CARTESIAN_POINT('',(54.,0.,50.));
#2220=DIRECTION('',(1.,0.,0.));
#2230=VECTOR('',#2220,1.);
#2240=LINE('',#2210,#2230);
#2250=CARTESIAN_POINT('',(60.,0.,50.));
#2260=VERTEX_POINT('',#2250);
#2270=EDGE_CURVE('',#2180,#2260,#2240,.T.);
#2280=ORIENTED_EDGE('',*,*,#2270,.F.);
#2290=CARTESIAN_POINT('',(60.,0.,0.));
#2300=DIRECTION('',(0.,0.,1.));
#2310=VECTOR('',#2300,1.);
#2320=LINE('',#2290,#2310);
#2330=EDGE_CURVE('',#130,#2260,#2320,.T.);
#2340=ORIENTED_EDGE('',*,*,#2330,.T.);
#2350=ORIENTED_EDGE('',*,*,#140,.T.);
#2360=EDGE_LOOP('',(#2350,#2340,#2280,#2200,#2120,#2110));
#2370=FACE_OUTER_BOUND('',#2360,.T.);
#2380=ADVANCED_FACE('',(#2370),#2050,.T.);
#2390=CARTESIAN_POINT('',(60.,50.,0.));
#2400=DIRECTION('',(1.,0.,0.));
#2410=DIRECTION('',(0.,-1.,0.));
#2420=AXIS2_PLACEMENT_3D('',#2390,#2400,#2410);
#2430=PLANE('',#2420);
#2440=ORIENTED_EDGE('',*,*,#2330,.F.);
#2450=CARTESIAN_POINT('',(60.,0.,50.));
#2460=DIRECTION('',(0.,1.,0.));
#2470=VECTOR('',#2460,1.);
#2480=LINE('',#2450,#2470);
#2490=CARTESIAN_POINT('',(60.,50.,50.));
#2500=VERTEX_POINT('',#2490);
#2510=EDGE_CURVE('',#2260,#2500,#2480,.T.);
#2520=ORIENTED_EDGE('',*,*,#2510,.F.);
#2530=CARTESIAN_POINT('',(60.,50.,0.));
#2540=DIRECTION('',(0.,0.,1.));
#2550=VECTOR('',#2540,1.);
#2560=LINE('',#2530,#2550);
#2570=EDGE_CURVE('',#210,#2500,#2560,.T.);
#2580=ORIENTED_EDGE('',*,*,#2570,.T.);
#2590=ORIENTED_EDGE('',*,*,#220,.T.);
#2600=EDGE_LOOP('',(#2590,#2580,#2520,#2440));
#2610=FACE_OUTER_BOUND('',#2600,.T.);
#2620=CARTESIAN_POINT('',(60.,25.,25.));
#2630=DIRECTION('',(1.,0.,0.));
#2640=DIRECTION('',(0.,-1.,0.));
#2650=AXIS2_PLACEMENT_3D('',#2620,#2630,#2640);
#2660=CIRCLE('',#2650,4.5);
#2670=CARTESIAN_POINT('',(60.,20.5,25.));
#2680=VERTEX_POINT('',#2670);
#2690=CARTESIAN_POINT('',(60.,29.5,25.));
#2700=VERTEX_POINT('',#2690);
#2710=EDGE_CURVE('',#2680,#2700,#2660,.T.);
#2720=ORIENTED_EDGE('',*,*,#2710,.F.);
#2730=EDGE_CURVE('',#2700,#2680,#2660,.T.);
#2740=ORIENTED_EDGE('',*,*,#2730,.F.);
#2750=EDGE_LOOP('',(#2740,#2720));
#2760=FACE_BOUND('',#2750,.T.);
#2770=ADVANCED_FACE('',(#2610,#2760),#2430,.T.);
#2780=CARTESIAN_POINT('',(0.,50.,0.));
#2790=DIRECTION('',(-0.,1.,0.));
#2800=DIRECTION('',(1.,0.,0.));
#2810=AXIS2_PLACEMENT_3D('',#2780,#2790,#2800);
#2820=PLANE('',#2810);
#2830=ORIENTED_EDGE('',*,*,#2570,.F.);
#2840=CARTESIAN_POINT('',(60.,50.,50.));
#2850=DIRECTION('',(-1.,0.,0.));
#2860=VECTOR('',#2850,1.);
#2870=LINE('',#2840,#2860);
#2880=CARTESIAN_POINT('',(54.,50.,50.));
#2890=VERTEX_POINT('',#2880);
#2900=EDGE_CURVE('',#2500,#2890,#2870,.T.);
#2910=ORIENTED_EDGE('',*,*,#2900,.F.);
#2920=CARTESIAN_POINT('',(54.,50.,6.));
#2930=DIRECTION('',(0.,0.,1.));
#2940=VECTOR('',#2930,1.);
#2950=LINE('',#2920,#2940);
#2960=EDGE_CURVE('',#1290,#2890,#2950,.T.);
#2970=ORIENTED_EDGE('',*,*,#2960,.T.);
#2980=ORIENTED_EDGE('',*,*,#1300,.F.);
#2990=CARTESIAN_POINT('',(0.,50.,0.));
#3000=DIRECTION('',(0.,0.,1.));
#3010=VECTOR('',#3000,1.);
#3020=LINE('',#2990,#3010);
#3030=EDGE_CURVE('',#290,#1210,#3020,.T.);
#3040=ORIENTED_EDGE('',*,*,#3030,.T.);
#3050=ORIENTED_EDGE('',*,*,#300,.T.);
#3060=EDGE_LOOP('',(#3050,#3040,#2980,#2970,#2910,#2830));
#3070=FACE_OUTER_BOUND('',#3060,.T.);
#3080=ADVANCED_FACE('',(#3070),#2820,.T.);
#3090=CARTESIAN_POINT('',(0.,0.,0.));
#3100=DIRECTION('',(-1.,0.,0.));
#3110=DIRECTION('',(0.,1.,0.));
#3120=AXIS2_PLACEMENT_3D('',#3090,#3100,#3110);
#3130=PLANE('',#3120);
#3140=ORIENTED_EDGE('',*,*,#3030,.F.);
#3150=ORIENTED_EDGE('',*,*,#1220,.F.);
#3160=ORIENTED_EDGE('',*,*,#2100,.T.);
#3170=ORIENTED_EDGE('',*,*,#360,.T.);
#3180=EDGE_LOOP('',(#3170,#3160,#3150,#3140));
#3190=FACE_OUTER_BOUND('',#3180,.T.);
#3200=ADVANCED_FACE('',(#3190),#3130,.T.);
#3210=CARTESIAN_POINT('',(54.,0.,6.));
#3220=DIRECTION('',(-1.,0.,0.));
#3230=DIRECTION('',(0.,1.,0.));
#3240=AXIS2_PLACEMENT_3D('',#3210,#3220,#3230);
#3250=PLANE('',#3240);
#3260=ORIENTED_EDGE('',*,*,#2960,.F.);
#3270=CARTESIAN_POINT('',(54.,50.,50.));
#3280=DIRECTION('',(0.,-1.,0.));
#3290=VECTOR('',#3280,1.);
#3300=LINE('',#3270,#3290);
#3310=EDGE_CURVE('',#2890,#2180,#3300,.T.);
#3320=ORIENTED_EDGE('',*,*,#3310,.F.);
#3330=ORIENTED_EDGE('',*,*,#2190,.T.);
#3340=ORIENTED_EDGE('',*,*,#1360,.T.);
#3350=EDGE_LOOP('',(#3340,#3330,#3320,#3260));
#3360=FACE_OUTER_BOUND('',#3350,.T.);
#3370=CARTESIAN_POINT('',(54.,25.,25.));
#3380=DIRECTION('',(1.,0.,0.));
#3390=DIRECTION('',(0.,-1.,0.));
#3400=AXIS2_PLACEMENT_3D('',#3370,#3380,#3390);
#3410=CIRCLE('',#3400,4.5);
#3420=CARTESIAN_POINT('',(54.,20.5,25.));
#3430=VERTEX_POINT('',#3420);
#3440=CARTESIAN_POINT('',(54.,29.5,25.));
#3450=VERTEX_POINT('',#3440);
#3460=EDGE_CURVE('',#3430,#3450,#3410,.T.);
#3470=ORIENTED_EDGE('',*,*,#3460,.T.);
#3480=EDGE_CURVE('',#3450,#3430,#3410,.T.);
#3490=ORIENTED_EDGE('',*,*,#3480,.T.);
#3500=EDGE_LOOP('',(#3490,#3470));
#3510=FACE_BOUND('',#3500,.T.);
#3520=ADVANCED_FACE('',(#3360,#3510),#3250,.T.);
#3530=CARTESIAN_POINT('',(30.,25.,50.));
#3540=DIRECTION('',(0.,0.,1.));
#3550=DIRECTION('',(1.,0.,0.));
#3560=AXIS2_PLACEMENT_3D('',#3530,#3540,#3550);
#3570=PLANE('',#3560);
#3580=ORIENTED_EDGE('',*,*,#2900,.T.);
#3590=ORIENTED_EDGE('',*,*,#2510,.T.);
#3600=ORIENTED_EDGE('',*,*,#2270,.T.);
#3610=ORIENTED_EDGE('',*,*,#3310,.T.);
#3620=EDGE_LOOP('',(#3610,#3600,#3590,#3580));
#3630=FACE_OUTER_BOUND('',#3620,.T.);
#3640=ADVANCED_FACE('',(#3630),#3570,.T.);
#3650=CARTESIAN_POINT('',(7.5,42.5,6.));
#3660=DIRECTION('',(0.,0.,1.));
#3670=DIRECTION('',(1.,0.,0.));
#3680=AXIS2_PLACEMENT_3D('',#3650,#3660,#3670);
#3690=CYLINDRICAL_SURFACE('',#3680,4.5);
#3700=CARTESIAN_POINT('',(3.,42.5,6.));
#3710=DIRECTION('',(0.,0.,1.));
#3720=VECTOR('',#3710,1.);
#3730=LINE('',#3700,#3720);
#3740=EDGE_CURVE('',#480,#1480,#3730,.T.);
#3750=ORIENTED_EDGE('',*,*,#3740,.T.);
#3760=ORIENTED_EDGE('',*,*,#510,.F.);
#3770=CARTESIAN_POINT('',(12.,42.5,6.));
#3780=DIRECTION('',(0.,0.,1.));
#3790=VECTOR('',#3780,1.);
#3800=LINE('',#3770,#3790);
#3810=EDGE_CURVE('',#460,#1460,#3800,.T.);
#3820=ORIENTED_EDGE('',*,*,#3810,.F.);
#3830=ORIENTED_EDGE('',*,*,#1510,.T.);
#3840=EDGE_LOOP('',(#3830,#3820,#3760,#3750));
#3850=FACE_OUTER_BOUND('',#3840,.T.);
#3860=ADVANCED_FACE('',(#3850),#3690,.F.);
#3870=CARTESIAN_POINT('',(42.5,42.5,6.));
#3880=DIRECTION('',(0.,0.,1.));
#3890=DIRECTION('',(1.,0.,0.));
#3900=AXIS2_PLACEMENT_3D('',#3870,#3880,#3890);
#3910=CYLINDRICAL_SURFACE('',#3900,4.5);
#3920=CARTESIAN_POINT('',(38.,42.5,6.));
#3930=DIRECTION('',(0.,0.,1.));
#3940=VECTOR('',#3930,1.);
#3950=LINE('',#3920,#3940);
#3960=EDGE_CURVE('',#630,#1630,#3950,.T.);
#3970=ORIENTED_EDGE('',*,*,#3960,.T.);
#3980=ORIENTED_EDGE('',*,*,#660,.F.);
#3990=CARTESIAN_POINT('',(47.,42.5,6.));
#4000=DIRECTION('',(0.,0.,1.));
#4010=VECTOR('',#4000,1.);
#4020=LINE('',#3990,#4010);
#4030=EDGE_CURVE('',#610,#1610,#4020,.T.);
#4040=ORIENTED_EDGE('',*,*,#4030,.F.);
#4050=ORIENTED_EDGE('',*,*,#1660,.T.);
#4060=EDGE_LOOP('',(#4050,#4040,#3980,#3970));
#4070=FACE_OUTER_BOUND('',#4060,.T.);
#4080=ADVANCED_FACE('',(#4070),#3910,.F.);
#4090=CARTESIAN_POINT('',(42.5,7.5,6.));
#4100=DIRECTION('',(0.,0.,1.));
#4110=DIRECTION('',(1.,0.,0.));
#4120=AXIS2_PLACEMENT_3D('',#4090,#4100,#4110);
#4130=CYLINDRICAL_SURFACE('',#4120,4.5);
#4140=CARTESIAN_POINT('',(38.,7.5,6.));
#4150=DIRECTION('',(0.,0.,1.));
#4160=VECTOR('',#4150,1.);
#4170=LINE('',#4140,#4160);
#4180=EDGE_CURVE('',#780,#1780,#4170,.T.);
#4190=ORIENTED_EDGE('',*,*,#4180,.T.);
#4200=ORIENTED_EDGE('',*,*,#810,.F.);
#4210=CARTESIAN_POINT('',(47.,7.5,6.));
#4220=DIRECTION('',(0.,0.,1.));
#4230=VECTOR('',#4220,1.);
#4240=LINE('',#4210,#4230);
#4250=EDGE_CURVE('',#760,#1760,#4240,.T.);
#4260=ORIENTED_EDGE('',*,*,#4250,.F.);
#4270=ORIENTED_EDGE('',*,*,#1810,.T.);
#4280=EDGE_LOOP('',(#4270,#4260,#4200,#4190));
#4290=FACE_OUTER_BOUND('',#4280,.T.);
#4300=ADVANCED_FACE('',(#4290),#4130,.F.);
#4310=CARTESIAN_POINT('',(7.5,7.50000000000001,6.));
#4320=DIRECTION('',(0.,0.,1.));
#4330=DIRECTION('',(1.,0.,0.));
#4340=AXIS2_PLACEMENT_3D('',#4310,#4320,#4330);
#4350=CYLINDRICAL_SURFACE('',#4340,4.5);
#4360=CARTESIAN_POINT('',(3.,7.50000000000001,6.));
#4370=DIRECTION('',(0.,0.,1.));
#4380=VECTOR('',#4370,1.);
#4390=LINE('',#4360,#4380);
#4400=EDGE_CURVE('',#930,#1930,#4390,.T.);
#4410=ORIENTED_EDGE('',*,*,#4400,.T.);
#4420=ORIENTED_EDGE('',*,*,#960,.F.);
#4430=CARTESIAN_POINT('',(12.,7.50000000000001,6.));
#4440=DIRECTION('',(0.,0.,1.));
#4450=VECTOR('',#4440,1.);
#4460=LINE('',#4430,#4450);
#4470=EDGE_CURVE('',#910,#1910,#4460,.T.);
#4480=ORIENTED_EDGE('',*,*,#4470,.F.);
#4490=ORIENTED_EDGE('',*,*,#1960,.T.);
#4500=EDGE_LOOP('',(#4490,#4480,#4420,#4410));
#4510=FACE_OUTER_BOUND('',#4500,.T.);
#4520=ADVANCED_FACE('',(#4510),#4350,.F.);
#4530=CARTESIAN_POINT('',(60.,25.,25.));
#4540=DIRECTION('',(1.,0.,0.));
#4550=DIRECTION('',(0.,-1.,0.));
#4560=AXIS2_PLACEMENT_3D('',#4530,#4540,#4550);
#4570=CYLINDRICAL_SURFACE('',#4560,4.5);
#4580=CARTESIAN_POINT('',(60.,29.5,25.));
#4590=DIRECTION('',(1.,0.,0.));
#4600=VECTOR('',#4590,1.);
#4610=LINE('',#4580,#4600);
#4620=EDGE_CURVE('',#3450,#2700,#4610,.T.);
#4630=ORIENTED_EDGE('',*,*,#4620,.T.);
#4640=ORIENTED_EDGE('',*,*,#3480,.F.);
#4650=CARTESIAN_POINT('',(60.,20.5,25.));
#4660=DIRECTION('',(1.,0.,0.));
#4670=VECTOR('',#4660,1.);
#4680=LINE('',#4650,#4670);
#4690=EDGE_CURVE('',#3430,#2680,#4680,.T.);
#4700=ORIENTED_EDGE('',*,*,#4690,.F.);
#4710=ORIENTED_EDGE('',*,*,#2730,.T.);
#4720=EDGE_LOOP('',(#4710,#4700,#4640,#4630));
#4730=FACE_OUTER_BOUND('',#4720,.T.);
#4740=ADVANCED_FACE('',(#4730),#4570,.F.);
#4750=CARTESIAN_POINT('',(42.5,7.5,6.));
#4760=DIRECTION('',(0.,0.,1.));
#4770=DIRECTION('',(1.,0.,0.));
#4780=AXIS2_PLACEMENT_3D('',#4750,#4760,#4770);
#4790=CYLINDRICAL_SURFACE('',#4780,4.5);
#4800=ORIENTED_EDGE('',*,*,#790,.F.);
#4810=ORIENTED_EDGE('',*,*,#4180,.F.);
#4820=ORIENTED_EDGE('',*,*,#1790,.T.);
#4830=ORIENTED_EDGE('',*,*,#4250,.T.);
#4840=EDGE_LOOP('',(#4830,#4820,#4810,#4800));
#4850=FACE_OUTER_BOUND('',#4840,.T.);
#4860=ADVANCED_FACE('',(#4850),#4790,.F.);
#4870=CARTESIAN_POINT('',(60.,25.,25.));
#4880=DIRECTION('',(1.,0.,0.));
#4890=DIRECTION('',(0.,-1.,0.));
#4900=AXIS2_PLACEMENT_3D('',#4870,#4880,#4890);
#4910=CYLINDRICAL_SURFACE('',#4900,4.5);
#4920=ORIENTED_EDGE('',*,*,#3460,.F.);
#4930=ORIENTED_EDGE('',*,*,#4620,.F.);
#4940=ORIENTED_EDGE('',*,*,#2710,.T.);
#4950=ORIENTED_EDGE('',*,*,#4690,.T.);
#4960=EDGE_LOOP('',(#4950,#4940,#4930,#4920));
#4970=FACE_OUTER_BOUND('',#4960,.T.);
#4980=ADVANCED_FACE('',(#4970),#4910,.F.);
#4990=CARTESIAN_POINT('',(7.5,7.50000000000001,6.));
#5000=DIRECTION('',(0.,0.,1.));
#5010=DIRECTION('',(1.,0.,0.));
#5020=AXIS2_PLACEMENT_3D('',#4990,#5000,#5010);
#5030=CYLINDRICAL_SURFACE('',#5020,4.5);
#5040=ORIENTED_EDGE('',*,*,#940,.F.);
#5050=ORIENTED_EDGE('',*,*,#4400,.F.);
#5060=ORIENTED_EDGE('',*,*,#1940,.T.);
#5070=ORIENTED_EDGE('',*,*,#4470,.T.);
#5080=EDGE_LOOP('',(#5070,#5060,#5050,#5040));
#5090=FACE_OUTER_BOUND('',#5080,.T.);
#5100=ADVANCED_FACE('',(#5090),#5030,.F.);
#5110=CARTESIAN_POINT('',(42.5,42.5,6.));
#5120=DIRECTION('',(0.,0.,1.));
#5130=DIRECTION('',(1.,0.,0.));
#5140=AXIS2_PLACEMENT_3D('',#5110,#5120,#5130);
#5150=CYLINDRICAL_SURFACE('',#5140,4.5);
#5160=ORIENTED_EDGE('',*,*,#640,.F.);
#5170=ORIENTED_EDGE('',*,*,#3960,.F.);
#5180=ORIENTED_EDGE('',*,*,#1640,.T.);
#5190=ORIENTED_EDGE('',*,*,#4030,.T.);
#5200=EDGE_LOOP('',(#5190,#5180,#5170,#5160));
#5210=FACE_OUTER_BOUND('',#5200,.T.);
#5220=ADVANCED_FACE('',(#5210),#5150,.F.);
#5230=CARTESIAN_POINT('',(7.5,42.5,6.));
#5240=DIRECTION('',(0.,0.,1.));
#5250=DIRECTION('',(1.,0.,0.));
#5260=AXIS2_PLACEMENT_3D('',#5230,#5240,#5250);
#5270=CYLINDRICAL_SURFACE('',#5260,4.5);
#5280=ORIENTED_EDGE('',*,*,#490,.F.);
#5290=ORIENTED_EDGE('',*,*,#3740,.F.);
#5300=ORIENTED_EDGE('',*,*,#1490,.T.);
#5310=ORIENTED_EDGE('',*,*,#3810,.T.);
#5320=EDGE_LOOP('',(#5310,#5300,#5290,#5280));
#5330=FACE_OUTER_BOUND('',#5320,.T.);
#5340=ADVANCED_FACE('',(#5330),#5270,.F.);
#5350=CLOSED_SHELL('',(#2380,#2770,#3080,#3200,#3520,#3640,#3860,#4080,
#4300,#4520,#4740,#4860,#4980,#5100,#5220,#5340,#2000,#1000));
#5360=MANIFOLD_SOLID_BREP('',#5350);
#5370=CARTESIAN_POINT('',(0.,0.,0.));
#5380=DIRECTION('',(0.,0.,1.));
#5390=DIRECTION('',(1.,0.,0.));
#5400=AXIS2_PLACEMENT_3D('',#5370,#5380,#5390);
#5410=APPLICATION_CONTEXT(' ');
#5420=APPLICATION_PROTOCOL_DEFINITION(' ','automotive_design',1998,#5410
);
#5430=PRODUCT_CONTEXT('',#5410,'mechanical');
#5440=PRODUCT_DEFINITION_CONTEXT('part definition',#5410,'design');
#5450=PRODUCT('Abschlu\S\_winkel-MMS-55_60x50x50x6_55.0390_PX176326',
'Abschlu\S\_winkel-MMS-55_60x50x50x6_55.0390_PX176326','',(#5430));
#5460=PRODUCT_RELATED_PRODUCT_CATEGORY('part',' ',(#5450));
#5470=PRODUCT_DEFINITION_FORMATION_WITH_SPECIFIED_SOURCE('','',#5450,
.BOUGHT.);
#5480=PRODUCT_DEFINITION('',' ',#5470,#5440);
#5490=PRODUCT_DEFINITION_SHAPE('','',#5480);
#5500=DIMENSIONAL_EXPONENTS(1.,0.,0.,0.,0.,0.,0.);
#5510=DIMENSIONAL_EXPONENTS(0.,0.,0.,0.,0.,0.,0.);
#5520=DIMENSIONAL_EXPONENTS(0.,0.,0.,0.,0.,0.,0.);
#5530=(LENGTH_UNIT() NAMED_UNIT(*) SI_UNIT(.MILLI.,.METRE.));
#5540=(NAMED_UNIT(*) PLANE_ANGLE_UNIT() SI_UNIT($,.RADIAN.));
#5550=(NAMED_UNIT(*) SI_UNIT($,.STERADIAN.) SOLID_ANGLE_UNIT());
#5560=(GEOMETRIC_REPRESENTATION_CONTEXT(3) 
GLOBAL_UNCERTAINTY_ASSIGNED_CONTEXT((#5570)) 
GLOBAL_UNIT_ASSIGNED_CONTEXT((#5530,#5540,#5550)) REPRESENTATION_CONTEXT
('',''));
#5570=UNCERTAINTY_MEASURE_WITH_UNIT(LENGTH_MEASURE(1.E-6),#5530,
'distance_accuracy_value','maximum gap value');
#5580=ADVANCED_BREP_SHAPE_REPRESENTATION('',(#5400,#5360),#5560);
#5590=SHAPE_DEFINITION_REPRESENTATION(#5490,#5580);
#5600=COLOUR_RGB('',0.690196096897125,0.886274576187134,1.);
#5610=FILL_AREA_STYLE_COLOUR('',#5600);
#5620=FILL_AREA_STYLE('',(#5610));
#5630=SURFACE_STYLE_FILL_AREA(#5620);
#5640=SURFACE_SIDE_STYLE('',(#5630));
#5650=SURFACE_STYLE_USAGE(.BOTH.,#5640);
#5660=PRESENTATION_STYLE_ASSIGNMENT((#5650));
#5670=STYLED_ITEM('',(#5660),#5360);
#5680=DRAUGHTING_MODEL('',(#5670),#5560);
ENDSEC;
END-ISO-10303-21;
