ISO-10303-21;
HEADER;
FILE_DESCRIPTION(('Creo Elements/Direct Modeling STEP Export'),'2;1');
FILE_NAME(
'//KR-CAD2/PhoenixTemp/karl.letzgus/Konvertierung/55.0395_Anschlusswinke
l-MMS-55_G1-4-Zoll.stp','2022-03-21T 8:08:56',(''),(''),
'PTC Creo Elements/Direct Modeling STEP processor for AP214 (Solid Model
)',
'PTC Creo Elements/Direct Modeling 19.0C  15-Aug-2015 (C) Parametric Tec
hnology GmbH','');
FILE_SCHEMA(('AUTOMOTIVE_DESIGN { 1 0 10303 214 1 1 1 1 }'));
ENDSEC;
DATA;
#10=CARTESIAN_POINT('',(0.,0.,0.));
#20=DIRECTION('',(0.,0.,1.));
#30=DIRECTION('',(1.,0.,0.));
#40=AXIS2_PLACEMENT_3D('',#10,#20,#30);
#50=PLANE('',#40);
#60=CARTESIAN_POINT('',(42.5,42.5,0.));
#70=DIRECTION('',(0.,0.,1.));
#80=DIRECTION('',(1.,0.,0.));
#90=AXIS2_PLACEMENT_3D('',#60,#70,#80);
#100=CIRCLE('',#90,4.5);
#110=CARTESIAN_POINT('',(47.,42.5,0.));
#120=VERTEX_POINT('',#110);
#130=CARTESIAN_POINT('',(38.,42.5,0.));
#140=VERTEX_POINT('',#130);
#150=EDGE_CURVE('',#120,#140,#100,.T.);
#160=ORIENTED_EDGE('',*,*,#150,.T.);
#170=EDGE_CURVE('',#140,#120,#100,.T.);
#180=ORIENTED_EDGE('',*,*,#170,.T.);
#190=EDGE_LOOP('',(#180,#160));
#200=FACE_BOUND('',#190,.T.);
#210=CARTESIAN_POINT('',(42.5,7.5,0.));
#220=DIRECTION('',(0.,0.,1.));
#230=DIRECTION('',(1.,0.,0.));
#240=AXIS2_PLACEMENT_3D('',#210,#220,#230);
#250=CIRCLE('',#240,4.5);
#260=CARTESIAN_POINT('',(47.,7.5,0.));
#270=VERTEX_POINT('',#260);
#280=CARTESIAN_POINT('',(38.,7.5,0.));
#290=VERTEX_POINT('',#280);
#300=EDGE_CURVE('',#270,#290,#250,.T.);
#310=ORIENTED_EDGE('',*,*,#300,.T.);
#320=EDGE_CURVE('',#290,#270,#250,.T.);
#330=ORIENTED_EDGE('',*,*,#320,.T.);
#340=EDGE_LOOP('',(#330,#310));
#350=FACE_BOUND('',#340,.T.);
#360=CARTESIAN_POINT('',(7.5,7.50000000000001,0.));
#370=DIRECTION('',(0.,0.,1.));
#380=DIRECTION('',(1.,0.,0.));
#390=AXIS2_PLACEMENT_3D('',#360,#370,#380);
#400=CIRCLE('',#390,4.5);
#410=CARTESIAN_POINT('',(12.,7.50000000000001,0.));
#420=VERTEX_POINT('',#410);
#430=CARTESIAN_POINT('',(3.,7.50000000000001,0.));
#440=VERTEX_POINT('',#430);
#450=EDGE_CURVE('',#420,#440,#400,.T.);
#460=ORIENTED_EDGE('',*,*,#450,.T.);
#470=EDGE_CURVE('',#440,#420,#400,.T.);
#480=ORIENTED_EDGE('',*,*,#470,.T.);
#490=EDGE_LOOP('',(#480,#460));
#500=FACE_BOUND('',#490,.T.);
#510=CARTESIAN_POINT('',(25.,25.,0.));
#520=DIRECTION('',(0.,0.,-1.));
#530=DIRECTION('',(-1.,0.,0.));
#540=AXIS2_PLACEMENT_3D('',#510,#520,#530);
#550=CIRCLE('',#540,6.5785);
#560=CARTESIAN_POINT('',(18.4215,25.,-1.11022302462516E-16));
#570=VERTEX_POINT('',#560);
#580=CARTESIAN_POINT('',(31.5785,25.,-1.11022302462516E-16));
#590=VERTEX_POINT('',#580);
#600=EDGE_CURVE('',#570,#590,#550,.T.);
#610=ORIENTED_EDGE('',*,*,#600,.F.);
#620=EDGE_CURVE('',#590,#570,#550,.T.);
#630=ORIENTED_EDGE('',*,*,#620,.F.);
#640=EDGE_LOOP('',(#630,#610));
#650=FACE_BOUND('',#640,.T.);
#660=CARTESIAN_POINT('',(7.5,42.5,0.));
#670=DIRECTION('',(0.,0.,1.));
#680=DIRECTION('',(1.,0.,0.));
#690=AXIS2_PLACEMENT_3D('',#660,#670,#680);
#700=CIRCLE('',#690,4.5);
#710=CARTESIAN_POINT('',(12.,42.5,0.));
#720=VERTEX_POINT('',#710);
#730=CARTESIAN_POINT('',(3.,42.5,0.));
#740=VERTEX_POINT('',#730);
#750=EDGE_CURVE('',#720,#740,#700,.T.);
#760=ORIENTED_EDGE('',*,*,#750,.T.);
#770=EDGE_CURVE('',#740,#720,#700,.T.);
#780=ORIENTED_EDGE('',*,*,#770,.T.);
#790=EDGE_LOOP('',(#780,#760));
#800=FACE_BOUND('',#790,.T.);
#810=CARTESIAN_POINT('',(0.,0.,0.));
#820=DIRECTION('',(1.,0.,0.));
#830=VECTOR('',#820,1.);
#840=LINE('',#810,#830);
#850=CARTESIAN_POINT('',(0.,0.,0.));
#860=VERTEX_POINT('',#850);
#870=CARTESIAN_POINT('',(60.,0.,0.));
#880=VERTEX_POINT('',#870);
#890=EDGE_CURVE('',#860,#880,#840,.T.);
#900=ORIENTED_EDGE('',*,*,#890,.F.);
#910=CARTESIAN_POINT('',(60.,0.,0.));
#920=DIRECTION('',(0.,1.,0.));
#930=VECTOR('',#920,1.);
#940=LINE('',#910,#930);
#950=CARTESIAN_POINT('',(60.,50.,0.));
#960=VERTEX_POINT('',#950);
#970=EDGE_CURVE('',#880,#960,#940,.T.);
#980=ORIENTED_EDGE('',*,*,#970,.F.);
#990=CARTESIAN_POINT('',(60.,50.,0.));
#1000=DIRECTION('',(-1.,0.,0.));
#1010=VECTOR('',#1000,1.);
#1020=LINE('',#990,#1010);
#1030=CARTESIAN_POINT('',(0.,50.,0.));
#1040=VERTEX_POINT('',#1030);
#1050=EDGE_CURVE('',#960,#1040,#1020,.T.);
#1060=ORIENTED_EDGE('',*,*,#1050,.F.);
#1070=CARTESIAN_POINT('',(0.,50.,0.));
#1080=DIRECTION('',(0.,-1.,0.));
#1090=VECTOR('',#1080,1.);
#1100=LINE('',#1070,#1090);
#1110=EDGE_CURVE('',#1040,#860,#1100,.T.);
#1120=ORIENTED_EDGE('',*,*,#1110,.F.);
#1130=EDGE_LOOP('',(#1120,#1060,#980,#900));
#1140=FACE_OUTER_BOUND('',#1130,.T.);
#1150=ADVANCED_FACE('',(#200,#350,#500,#650,#800,#1140),#50,.F.);
#1160=CARTESIAN_POINT('',(0.,0.,6.));
#1170=DIRECTION('',(0.,0.,1.));
#1180=DIRECTION('',(1.,0.,0.));
#1190=AXIS2_PLACEMENT_3D('',#1160,#1170,#1180);
#1200=PLANE('',#1190);
#1210=CARTESIAN_POINT('',(42.5,42.5,6.));
#1220=DIRECTION('',(0.,0.,1.));
#1230=DIRECTION('',(1.,0.,0.));
#1240=AXIS2_PLACEMENT_3D('',#1210,#1220,#1230);
#1250=CIRCLE('',#1240,4.5);
#1260=CARTESIAN_POINT('',(47.,42.5,6.));
#1270=VERTEX_POINT('',#1260);
#1280=CARTESIAN_POINT('',(38.,42.5,6.));
#1290=VERTEX_POINT('',#1280);
#1300=EDGE_CURVE('',#1270,#1290,#1250,.T.);
#1310=ORIENTED_EDGE('',*,*,#1300,.F.);
#1320=EDGE_CURVE('',#1290,#1270,#1250,.T.);
#1330=ORIENTED_EDGE('',*,*,#1320,.F.);
#1340=EDGE_LOOP('',(#1330,#1310));
#1350=FACE_BOUND('',#1340,.T.);
#1360=CARTESIAN_POINT('',(42.5,7.5,6.));
#1370=DIRECTION('',(0.,0.,1.));
#1380=DIRECTION('',(1.,0.,0.));
#1390=AXIS2_PLACEMENT_3D('',#1360,#1370,#1380);
#1400=CIRCLE('',#1390,4.5);
#1410=CARTESIAN_POINT('',(47.,7.5,6.));
#1420=VERTEX_POINT('',#1410);
#1430=CARTESIAN_POINT('',(38.,7.5,6.));
#1440=VERTEX_POINT('',#1430);
#1450=EDGE_CURVE('',#1420,#1440,#1400,.T.);
#1460=ORIENTED_EDGE('',*,*,#1450,.F.);
#1470=EDGE_CURVE('',#1440,#1420,#1400,.T.);
#1480=ORIENTED_EDGE('',*,*,#1470,.F.);
#1490=EDGE_LOOP('',(#1480,#1460));
#1500=FACE_BOUND('',#1490,.T.);
#1510=CARTESIAN_POINT('',(7.5,7.50000000000001,6.));
#1520=DIRECTION('',(0.,0.,1.));
#1530=DIRECTION('',(1.,0.,0.));
#1540=AXIS2_PLACEMENT_3D('',#1510,#1520,#1530);
#1550=CIRCLE('',#1540,4.5);
#1560=CARTESIAN_POINT('',(12.,7.50000000000001,6.));
#1570=VERTEX_POINT('',#1560);
#1580=CARTESIAN_POINT('',(3.,7.50000000000001,6.));
#1590=VERTEX_POINT('',#1580);
#1600=EDGE_CURVE('',#1570,#1590,#1550,.T.);
#1610=ORIENTED_EDGE('',*,*,#1600,.F.);
#1620=EDGE_CURVE('',#1590,#1570,#1550,.T.);
#1630=ORIENTED_EDGE('',*,*,#1620,.F.);
#1640=EDGE_LOOP('',(#1630,#1610));
#1650=FACE_BOUND('',#1640,.T.);
#1660=CARTESIAN_POINT('',(25.,25.,6.));
#1670=DIRECTION('',(0.,0.,-1.));
#1680=DIRECTION('',(-1.,0.,0.));
#1690=AXIS2_PLACEMENT_3D('',#1660,#1670,#1680);
#1700=CIRCLE('',#1690,6.57849972695057);
#1710=CARTESIAN_POINT('',(18.4215002730494,25.,6.));
#1720=VERTEX_POINT('',#1710);
#1730=CARTESIAN_POINT('',(31.5784997269506,25.,6.));
#1740=VERTEX_POINT('',#1730);
#1750=EDGE_CURVE('',#1720,#1740,#1700,.T.);
#1760=ORIENTED_EDGE('',*,*,#1750,.T.);
#1770=EDGE_CURVE('',#1740,#1720,#1700,.T.);
#1780=ORIENTED_EDGE('',*,*,#1770,.T.);
#1790=EDGE_LOOP('',(#1780,#1760));
#1800=FACE_BOUND('',#1790,.T.);
#1810=CARTESIAN_POINT('',(7.5,42.5,6.));
#1820=DIRECTION('',(0.,0.,1.));
#1830=DIRECTION('',(1.,0.,0.));
#1840=AXIS2_PLACEMENT_3D('',#1810,#1820,#1830);
#1850=CIRCLE('',#1840,4.5);
#1860=CARTESIAN_POINT('',(12.,42.5,6.));
#1870=VERTEX_POINT('',#1860);
#1880=CARTESIAN_POINT('',(3.,42.5,6.));
#1890=VERTEX_POINT('',#1880);
#1900=EDGE_CURVE('',#1870,#1890,#1850,.T.);
#1910=ORIENTED_EDGE('',*,*,#1900,.F.);
#1920=EDGE_CURVE('',#1890,#1870,#1850,.T.);
#1930=ORIENTED_EDGE('',*,*,#1920,.F.);
#1940=EDGE_LOOP('',(#1930,#1910));
#1950=FACE_BOUND('',#1940,.T.);
#1960=CARTESIAN_POINT('',(0.,0.,6.));
#1970=DIRECTION('',(1.,0.,0.));
#1980=VECTOR('',#1970,1.);
#1990=LINE('',#1960,#1980);
#2000=CARTESIAN_POINT('',(0.,0.,6.));
#2010=VERTEX_POINT('',#2000);
#2020=CARTESIAN_POINT('',(54.,0.,6.));
#2030=VERTEX_POINT('',#2020);
#2040=EDGE_CURVE('',#2010,#2030,#1990,.T.);
#2050=ORIENTED_EDGE('',*,*,#2040,.T.);
#2060=CARTESIAN_POINT('',(0.,50.,6.));
#2070=DIRECTION('',(0.,-1.,0.));
#2080=VECTOR('',#2070,1.);
#2090=LINE('',#2060,#2080);
#2100=CARTESIAN_POINT('',(0.,50.,6.));
#2110=VERTEX_POINT('',#2100);
#2120=EDGE_CURVE('',#2110,#2010,#2090,.T.);
#2130=ORIENTED_EDGE('',*,*,#2120,.T.);
#2140=CARTESIAN_POINT('',(60.,50.,6.));
#2150=DIRECTION('',(-1.,0.,0.));
#2160=VECTOR('',#2150,1.);
#2170=LINE('',#2140,#2160);
#2180=CARTESIAN_POINT('',(54.,50.,6.));
#2190=VERTEX_POINT('',#2180);
#2200=EDGE_CURVE('',#2190,#2110,#2170,.T.);
#2210=ORIENTED_EDGE('',*,*,#2200,.T.);
#2220=CARTESIAN_POINT('',(54.,0.,6.));
#2230=DIRECTION('',(0.,-1.,0.));
#2240=VECTOR('',#2230,1.);
#2250=LINE('',#2220,#2240);
#2260=EDGE_CURVE('',#2190,#2030,#2250,.T.);
#2270=ORIENTED_EDGE('',*,*,#2260,.F.);
#2280=EDGE_LOOP('',(#2270,#2210,#2130,#2050));
#2290=FACE_OUTER_BOUND('',#2280,.T.);
#2300=ADVANCED_FACE('',(#1350,#1500,#1650,#1800,#1950,#2290),#1200,.T.);
#2310=CARTESIAN_POINT('',(60.,0.,0.));
#2320=DIRECTION('',(-0.,-1.,-0.));
#2330=DIRECTION('',(-1.,0.,0.));
#2340=AXIS2_PLACEMENT_3D('',#2310,#2320,#2330);
#2350=PLANE('',#2340);
#2360=CARTESIAN_POINT('',(0.,0.,0.));
#2370=DIRECTION('',(0.,0.,1.));
#2380=VECTOR('',#2370,1.);
#2390=LINE('',#2360,#2380);
#2400=EDGE_CURVE('',#860,#2010,#2390,.T.);
#2410=ORIENTED_EDGE('',*,*,#2400,.F.);
#2420=ORIENTED_EDGE('',*,*,#2040,.F.);
#2430=CARTESIAN_POINT('',(54.,0.,6.));
#2440=DIRECTION('',(0.,0.,1.));
#2450=VECTOR('',#2440,1.);
#2460=LINE('',#2430,#2450);
#2470=CARTESIAN_POINT('',(54.,0.,50.));
#2480=VERTEX_POINT('',#2470);
#2490=EDGE_CURVE('',#2030,#2480,#2460,.T.);
#2500=ORIENTED_EDGE('',*,*,#2490,.F.);
#2510=CARTESIAN_POINT('',(54.,0.,50.));
#2520=DIRECTION('',(1.,0.,0.));
#2530=VECTOR('',#2520,1.);
#2540=LINE('',#2510,#2530);
#2550=CARTESIAN_POINT('',(60.,0.,50.));
#2560=VERTEX_POINT('',#2550);
#2570=EDGE_CURVE('',#2480,#2560,#2540,.T.);
#2580=ORIENTED_EDGE('',*,*,#2570,.F.);
#2590=CARTESIAN_POINT('',(60.,0.,0.));
#2600=DIRECTION('',(0.,0.,1.));
#2610=VECTOR('',#2600,1.);
#2620=LINE('',#2590,#2610);
#2630=EDGE_CURVE('',#880,#2560,#2620,.T.);
#2640=ORIENTED_EDGE('',*,*,#2630,.T.);
#2650=ORIENTED_EDGE('',*,*,#890,.T.);
#2660=EDGE_LOOP('',(#2650,#2640,#2580,#2500,#2420,#2410));
#2670=FACE_OUTER_BOUND('',#2660,.T.);
#2680=ADVANCED_FACE('',(#2670),#2350,.T.);
#2690=CARTESIAN_POINT('',(60.,50.,0.));
#2700=DIRECTION('',(1.,0.,0.));
#2710=DIRECTION('',(0.,-1.,0.));
#2720=AXIS2_PLACEMENT_3D('',#2690,#2700,#2710);
#2730=PLANE('',#2720);
#2740=ORIENTED_EDGE('',*,*,#2630,.F.);
#2750=CARTESIAN_POINT('',(60.,0.,50.));
#2760=DIRECTION('',(0.,1.,0.));
#2770=VECTOR('',#2760,1.);
#2780=LINE('',#2750,#2770);
#2790=CARTESIAN_POINT('',(60.,50.,50.));
#2800=VERTEX_POINT('',#2790);
#2810=EDGE_CURVE('',#2560,#2800,#2780,.T.);
#2820=ORIENTED_EDGE('',*,*,#2810,.F.);
#2830=CARTESIAN_POINT('',(60.,50.,0.));
#2840=DIRECTION('',(0.,0.,1.));
#2850=VECTOR('',#2840,1.);
#2860=LINE('',#2830,#2850);
#2870=EDGE_CURVE('',#960,#2800,#2860,.T.);
#2880=ORIENTED_EDGE('',*,*,#2870,.T.);
#2890=ORIENTED_EDGE('',*,*,#970,.T.);
#2900=EDGE_LOOP('',(#2890,#2880,#2820,#2740));
#2910=FACE_OUTER_BOUND('',#2900,.T.);
#2920=CARTESIAN_POINT('',(60.,25.,25.));
#2930=DIRECTION('',(1.,0.,0.));
#2940=DIRECTION('',(0.,-1.,0.));
#2950=AXIS2_PLACEMENT_3D('',#2920,#2930,#2940);
#2960=CIRCLE('',#2950,4.5);
#2970=CARTESIAN_POINT('',(60.,20.5,25.));
#2980=VERTEX_POINT('',#2970);
#2990=CARTESIAN_POINT('',(60.,29.5,25.));
#3000=VERTEX_POINT('',#2990);
#3010=EDGE_CURVE('',#2980,#3000,#2960,.T.);
#3020=ORIENTED_EDGE('',*,*,#3010,.F.);
#3030=EDGE_CURVE('',#3000,#2980,#2960,.T.);
#3040=ORIENTED_EDGE('',*,*,#3030,.F.);
#3050=EDGE_LOOP('',(#3040,#3020));
#3060=FACE_BOUND('',#3050,.T.);
#3070=ADVANCED_FACE('',(#2910,#3060),#2730,.T.);
#3080=CARTESIAN_POINT('',(0.,50.,0.));
#3090=DIRECTION('',(-0.,1.,0.));
#3100=DIRECTION('',(1.,0.,0.));
#3110=AXIS2_PLACEMENT_3D('',#3080,#3090,#3100);
#3120=PLANE('',#3110);
#3130=ORIENTED_EDGE('',*,*,#2870,.F.);
#3140=CARTESIAN_POINT('',(60.,50.,50.));
#3150=DIRECTION('',(-1.,0.,0.));
#3160=VECTOR('',#3150,1.);
#3170=LINE('',#3140,#3160);
#3180=CARTESIAN_POINT('',(54.,50.,50.));
#3190=VERTEX_POINT('',#3180);
#3200=EDGE_CURVE('',#2800,#3190,#3170,.T.);
#3210=ORIENTED_EDGE('',*,*,#3200,.F.);
#3220=CARTESIAN_POINT('',(54.,50.,6.));
#3230=DIRECTION('',(0.,0.,1.));
#3240=VECTOR('',#3230,1.);
#3250=LINE('',#3220,#3240);
#3260=EDGE_CURVE('',#2190,#3190,#3250,.T.);
#3270=ORIENTED_EDGE('',*,*,#3260,.T.);
#3280=ORIENTED_EDGE('',*,*,#2200,.F.);
#3290=CARTESIAN_POINT('',(0.,50.,0.));
#3300=DIRECTION('',(0.,0.,1.));
#3310=VECTOR('',#3300,1.);
#3320=LINE('',#3290,#3310);
#3330=EDGE_CURVE('',#1040,#2110,#3320,.T.);
#3340=ORIENTED_EDGE('',*,*,#3330,.T.);
#3350=ORIENTED_EDGE('',*,*,#1050,.T.);
#3360=EDGE_LOOP('',(#3350,#3340,#3280,#3270,#3210,#3130));
#3370=FACE_OUTER_BOUND('',#3360,.T.);
#3380=ADVANCED_FACE('',(#3370),#3120,.T.);
#3390=CARTESIAN_POINT('',(0.,0.,0.));
#3400=DIRECTION('',(-1.,0.,0.));
#3410=DIRECTION('',(0.,1.,0.));
#3420=AXIS2_PLACEMENT_3D('',#3390,#3400,#3410);
#3430=PLANE('',#3420);
#3440=ORIENTED_EDGE('',*,*,#3330,.F.);
#3450=ORIENTED_EDGE('',*,*,#2120,.F.);
#3460=ORIENTED_EDGE('',*,*,#2400,.T.);
#3470=ORIENTED_EDGE('',*,*,#1110,.T.);
#3480=EDGE_LOOP('',(#3470,#3460,#3450,#3440));
#3490=FACE_OUTER_BOUND('',#3480,.T.);
#3500=ADVANCED_FACE('',(#3490),#3430,.T.);
#3510=CARTESIAN_POINT('',(54.,0.,6.));
#3520=DIRECTION('',(-1.,0.,0.));
#3530=DIRECTION('',(0.,1.,0.));
#3540=AXIS2_PLACEMENT_3D('',#3510,#3520,#3530);
#3550=PLANE('',#3540);
#3560=ORIENTED_EDGE('',*,*,#3260,.F.);
#3570=CARTESIAN_POINT('',(54.,50.,50.));
#3580=DIRECTION('',(0.,-1.,0.));
#3590=VECTOR('',#3580,1.);
#3600=LINE('',#3570,#3590);
#3610=EDGE_CURVE('',#3190,#2480,#3600,.T.);
#3620=ORIENTED_EDGE('',*,*,#3610,.F.);
#3630=ORIENTED_EDGE('',*,*,#2490,.T.);
#3640=ORIENTED_EDGE('',*,*,#2260,.T.);
#3650=EDGE_LOOP('',(#3640,#3630,#3620,#3560));
#3660=FACE_OUTER_BOUND('',#3650,.T.);
#3670=CARTESIAN_POINT('',(54.,25.,25.));
#3680=DIRECTION('',(1.,0.,0.));
#3690=DIRECTION('',(0.,-1.,0.));
#3700=AXIS2_PLACEMENT_3D('',#3670,#3680,#3690);
#3710=CIRCLE('',#3700,4.5);
#3720=CARTESIAN_POINT('',(54.,20.5,25.));
#3730=VERTEX_POINT('',#3720);
#3740=CARTESIAN_POINT('',(54.,29.5,25.));
#3750=VERTEX_POINT('',#3740);
#3760=EDGE_CURVE('',#3730,#3750,#3710,.T.);
#3770=ORIENTED_EDGE('',*,*,#3760,.T.);
#3780=EDGE_CURVE('',#3750,#3730,#3710,.T.);
#3790=ORIENTED_EDGE('',*,*,#3780,.T.);
#3800=EDGE_LOOP('',(#3790,#3770));
#3810=FACE_BOUND('',#3800,.T.);
#3820=ADVANCED_FACE('',(#3660,#3810),#3550,.T.);
#3830=CARTESIAN_POINT('',(30.,25.,50.));
#3840=DIRECTION('',(0.,0.,1.));
#3850=DIRECTION('',(1.,0.,0.));
#3860=AXIS2_PLACEMENT_3D('',#3830,#3840,#3850);
#3870=PLANE('',#3860);
#3880=ORIENTED_EDGE('',*,*,#3200,.T.);
#3890=ORIENTED_EDGE('',*,*,#2810,.T.);
#3900=ORIENTED_EDGE('',*,*,#2570,.T.);
#3910=ORIENTED_EDGE('',*,*,#3610,.T.);
#3920=EDGE_LOOP('',(#3910,#3900,#3890,#3880));
#3930=FACE_OUTER_BOUND('',#3920,.T.);
#3940=ADVANCED_FACE('',(#3930),#3870,.T.);
#3950=CARTESIAN_POINT('',(7.5,42.5,6.));
#3960=DIRECTION('',(0.,0.,1.));
#3970=DIRECTION('',(1.,0.,0.));
#3980=AXIS2_PLACEMENT_3D('',#3950,#3960,#3970);
#3990=CYLINDRICAL_SURFACE('',#3980,4.5);
#4000=CARTESIAN_POINT('',(3.,42.5,6.));
#4010=DIRECTION('',(0.,0.,1.));
#4020=VECTOR('',#4010,1.);
#4030=LINE('',#4000,#4020);
#4040=EDGE_CURVE('',#740,#1890,#4030,.T.);
#4050=ORIENTED_EDGE('',*,*,#4040,.T.);
#4060=ORIENTED_EDGE('',*,*,#770,.F.);
#4070=CARTESIAN_POINT('',(12.,42.5,6.));
#4080=DIRECTION('',(0.,0.,1.));
#4090=VECTOR('',#4080,1.);
#4100=LINE('',#4070,#4090);
#4110=EDGE_CURVE('',#720,#1870,#4100,.T.);
#4120=ORIENTED_EDGE('',*,*,#4110,.F.);
#4130=ORIENTED_EDGE('',*,*,#1920,.T.);
#4140=EDGE_LOOP('',(#4130,#4120,#4060,#4050));
#4150=FACE_OUTER_BOUND('',#4140,.T.);
#4160=ADVANCED_FACE('',(#4150),#3990,.F.);
#4170=CARTESIAN_POINT('',(42.5,42.5,6.));
#4180=DIRECTION('',(0.,0.,1.));
#4190=DIRECTION('',(1.,0.,0.));
#4200=AXIS2_PLACEMENT_3D('',#4170,#4180,#4190);
#4210=CYLINDRICAL_SURFACE('',#4200,4.5);
#4220=CARTESIAN_POINT('',(38.,42.5,6.));
#4230=DIRECTION('',(0.,0.,1.));
#4240=VECTOR('',#4230,1.);
#4250=LINE('',#4220,#4240);
#4260=EDGE_CURVE('',#140,#1290,#4250,.T.);
#4270=ORIENTED_EDGE('',*,*,#4260,.T.);
#4280=ORIENTED_EDGE('',*,*,#170,.F.);
#4290=CARTESIAN_POINT('',(47.,42.5,6.));
#4300=DIRECTION('',(0.,0.,1.));
#4310=VECTOR('',#4300,1.);
#4320=LINE('',#4290,#4310);
#4330=EDGE_CURVE('',#120,#1270,#4320,.T.);
#4340=ORIENTED_EDGE('',*,*,#4330,.F.);
#4350=ORIENTED_EDGE('',*,*,#1320,.T.);
#4360=EDGE_LOOP('',(#4350,#4340,#4280,#4270));
#4370=FACE_OUTER_BOUND('',#4360,.T.);
#4380=ADVANCED_FACE('',(#4370),#4210,.F.);
#4390=CARTESIAN_POINT('',(42.5,7.5,6.));
#4400=DIRECTION('',(0.,0.,1.));
#4410=DIRECTION('',(1.,0.,0.));
#4420=AXIS2_PLACEMENT_3D('',#4390,#4400,#4410);
#4430=CYLINDRICAL_SURFACE('',#4420,4.5);
#4440=CARTESIAN_POINT('',(38.,7.5,6.));
#4450=DIRECTION('',(0.,0.,1.));
#4460=VECTOR('',#4450,1.);
#4470=LINE('',#4440,#4460);
#4480=EDGE_CURVE('',#290,#1440,#4470,.T.);
#4490=ORIENTED_EDGE('',*,*,#4480,.T.);
#4500=ORIENTED_EDGE('',*,*,#320,.F.);
#4510=CARTESIAN_POINT('',(47.,7.5,6.));
#4520=DIRECTION('',(0.,0.,1.));
#4530=VECTOR('',#4520,1.);
#4540=LINE('',#4510,#4530);
#4550=EDGE_CURVE('',#270,#1420,#4540,.T.);
#4560=ORIENTED_EDGE('',*,*,#4550,.F.);
#4570=ORIENTED_EDGE('',*,*,#1470,.T.);
#4580=EDGE_LOOP('',(#4570,#4560,#4500,#4490));
#4590=FACE_OUTER_BOUND('',#4580,.T.);
#4600=ADVANCED_FACE('',(#4590),#4430,.F.);
#4610=CARTESIAN_POINT('',(7.5,7.50000000000001,6.));
#4620=DIRECTION('',(0.,0.,1.));
#4630=DIRECTION('',(1.,0.,0.));
#4640=AXIS2_PLACEMENT_3D('',#4610,#4620,#4630);
#4650=CYLINDRICAL_SURFACE('',#4640,4.5);
#4660=CARTESIAN_POINT('',(3.,7.50000000000001,6.));
#4670=DIRECTION('',(0.,0.,1.));
#4680=VECTOR('',#4670,1.);
#4690=LINE('',#4660,#4680);
#4700=EDGE_CURVE('',#440,#1590,#4690,.T.);
#4710=ORIENTED_EDGE('',*,*,#4700,.T.);
#4720=ORIENTED_EDGE('',*,*,#470,.F.);
#4730=CARTESIAN_POINT('',(12.,7.50000000000001,6.));
#4740=DIRECTION('',(0.,0.,1.));
#4750=VECTOR('',#4740,1.);
#4760=LINE('',#4730,#4750);
#4770=EDGE_CURVE('',#420,#1570,#4760,.T.);
#4780=ORIENTED_EDGE('',*,*,#4770,.F.);
#4790=ORIENTED_EDGE('',*,*,#1620,.T.);
#4800=EDGE_LOOP('',(#4790,#4780,#4720,#4710));
#4810=FACE_OUTER_BOUND('',#4800,.T.);
#4820=ADVANCED_FACE('',(#4810),#4650,.F.);
#4830=CARTESIAN_POINT('',(60.,25.,25.));
#4840=DIRECTION('',(1.,0.,0.));
#4850=DIRECTION('',(0.,-1.,0.));
#4860=AXIS2_PLACEMENT_3D('',#4830,#4840,#4850);
#4870=CYLINDRICAL_SURFACE('',#4860,4.5);
#4880=CARTESIAN_POINT('',(60.,29.5,25.));
#4890=DIRECTION('',(1.,0.,0.));
#4900=VECTOR('',#4890,1.);
#4910=LINE('',#4880,#4900);
#4920=EDGE_CURVE('',#3750,#3000,#4910,.T.);
#4930=ORIENTED_EDGE('',*,*,#4920,.T.);
#4940=ORIENTED_EDGE('',*,*,#3780,.F.);
#4950=CARTESIAN_POINT('',(60.,20.5,25.));
#4960=DIRECTION('',(1.,0.,0.));
#4970=VECTOR('',#4960,1.);
#4980=LINE('',#4950,#4970);
#4990=EDGE_CURVE('',#3730,#2980,#4980,.T.);
#5000=ORIENTED_EDGE('',*,*,#4990,.F.);
#5010=ORIENTED_EDGE('',*,*,#3030,.T.);
#5020=EDGE_LOOP('',(#5010,#5000,#4940,#4930));
#5030=FACE_OUTER_BOUND('',#5020,.T.);
#5040=ADVANCED_FACE('',(#5030),#4870,.F.);
#5050=CARTESIAN_POINT('',(25.,25.,0.));
#5060=DIRECTION('',(0.,0.,-1.));
#5070=DIRECTION('',(-1.,0.,0.));
#5080=AXIS2_PLACEMENT_3D('',#5050,#5060,#5070);
#5090=CYLINDRICAL_SURFACE('',#5080,5.9);
#5100=CARTESIAN_POINT('',(30.9,25.,0.));
#5110=DIRECTION('',(0.,0.,-1.));
#5120=VECTOR('',#5110,1.);
#5130=LINE('',#5100,#5120);
#5140=CARTESIAN_POINT('',(30.9,25.,5.608268));
#5150=VERTEX_POINT('',#5140);
#5160=CARTESIAN_POINT('',(30.9,25.,0.391732157645161));
#5170=VERTEX_POINT('',#5160);
#5180=EDGE_CURVE('',#5150,#5170,#5130,.T.);
#5190=ORIENTED_EDGE('',*,*,#5180,.T.);
#5200=CARTESIAN_POINT('',(25.,25.,5.608268));
#5210=DIRECTION('',(0.,0.,-1.));
#5220=DIRECTION('',(-1.,0.,0.));
#5230=AXIS2_PLACEMENT_3D('',#5200,#5210,#5220);
#5240=CIRCLE('',#5230,5.9);
#5250=CARTESIAN_POINT('',(19.1,25.,5.608268));
#5260=VERTEX_POINT('',#5250);
#5270=EDGE_CURVE('',#5150,#5260,#5240,.T.);
#5280=ORIENTED_EDGE('',*,*,#5270,.F.);
#5290=CARTESIAN_POINT('',(19.1,25.,0.));
#5300=DIRECTION('',(0.,0.,-1.));
#5310=VECTOR('',#5300,1.);
#5320=LINE('',#5290,#5310);
#5330=CARTESIAN_POINT('',(19.1,25.,0.391732157645161));
#5340=VERTEX_POINT('',#5330);
#5350=EDGE_CURVE('',#5260,#5340,#5320,.T.);
#5360=ORIENTED_EDGE('',*,*,#5350,.F.);
#5370=CARTESIAN_POINT('',(25.,25.,0.391732157645161));
#5380=DIRECTION('',(0.,0.,-1.));
#5390=DIRECTION('',(-1.,0.,0.));
#5400=AXIS2_PLACEMENT_3D('',#5370,#5380,#5390);
#5410=CIRCLE('',#5400,5.9);
#5420=EDGE_CURVE('',#5170,#5340,#5410,.T.);
#5430=ORIENTED_EDGE('',*,*,#5420,.T.);
#5440=EDGE_LOOP('',(#5430,#5360,#5280,#5190));
#5450=FACE_OUTER_BOUND('',#5440,.T.);
#5460=ADVANCED_FACE('0.517992-19_17700',(#5450),#5090,.F.);
#5470=COLOUR_RGB('',1.,0.,0.);
#5480=FILL_AREA_STYLE_COLOUR('',#5470);
#5490=FILL_AREA_STYLE('',(#5480));
#5500=SURFACE_STYLE_FILL_AREA(#5490);
#5510=SURFACE_SIDE_STYLE('',(#5500));
#5520=SURFACE_STYLE_USAGE(.BOTH.,#5510);
#5530=PRESENTATION_STYLE_ASSIGNMENT((#5520));
#5540=CARTESIAN_POINT('',(25.,25.,0.391732157645161));
#5550=DIRECTION('',(0.,0.,-1.));
#5560=DIRECTION('',(-1.,0.,0.));
#5570=AXIS2_PLACEMENT_3D('',#5540,#5550,#5560);
#5580=CONICAL_SURFACE('',#5570,5.9,1.0471975511966);
#5590=CARTESIAN_POINT('',(19.1,25.,0.391732157645161));
#5600=DIRECTION('',(-0.866025403784439,0.,-0.5));
#5610=VECTOR('',#5600,6.81273317643758);
#5620=LINE('',#5590,#5610);
#5630=EDGE_CURVE('',#5340,#570,#5620,.T.);
#5640=ORIENTED_EDGE('',*,*,#5630,.F.);
#5650=ORIENTED_EDGE('',*,*,#620,.T.);
#5660=CARTESIAN_POINT('',(30.9,25.,0.391732157645161));
#5670=DIRECTION('',(0.866025403784439,0.,-0.5));
#5680=VECTOR('',#5670,6.81273317643758);
#5690=LINE('',#5660,#5680);
#5700=EDGE_CURVE('',#5170,#590,#5690,.T.);
#5710=ORIENTED_EDGE('',*,*,#5700,.T.);
#5720=ORIENTED_EDGE('',*,*,#5420,.F.);
#5730=EDGE_LOOP('',(#5720,#5710,#5650,#5640));
#5740=FACE_OUTER_BOUND('',#5730,.T.);
#5750=ADVANCED_FACE('',(#5740),#5580,.F.);
#5760=CARTESIAN_POINT('',(25.,25.,5.608268));
#5770=DIRECTION('',(0.,0.,1.));
#5780=DIRECTION('',(1.,0.,0.));
#5790=AXIS2_PLACEMENT_3D('',#5760,#5770,#5780);
#5800=CONICAL_SURFACE('',#5790,5.9,1.0471975511966);
#5810=CARTESIAN_POINT('',(30.9,25.,5.608268));
#5820=DIRECTION('',(0.866025403784439,0.,0.499999999999999));
#5830=VECTOR('',#5820,6.81273317643758);
#5840=LINE('',#5810,#5830);
#5850=EDGE_CURVE('',#5150,#1740,#5840,.T.);
#5860=ORIENTED_EDGE('',*,*,#5850,.F.);
#5870=ORIENTED_EDGE('',*,*,#1770,.F.);
#5880=CARTESIAN_POINT('',(19.1,25.,5.608268));
#5890=DIRECTION('',(-0.866025403784439,0.,0.499999999999999));
#5900=VECTOR('',#5890,6.81273317643758);
#5910=LINE('',#5880,#5900);
#5920=EDGE_CURVE('',#5260,#1720,#5910,.T.);
#5930=ORIENTED_EDGE('',*,*,#5920,.T.);
#5940=ORIENTED_EDGE('',*,*,#5270,.T.);
#5950=EDGE_LOOP('',(#5940,#5930,#5870,#5860));
#5960=FACE_OUTER_BOUND('',#5950,.T.);
#5970=ADVANCED_FACE('',(#5960),#5800,.F.);
#5980=CARTESIAN_POINT('',(42.5,42.5,6.));
#5990=DIRECTION('',(0.,0.,1.));
#6000=DIRECTION('',(1.,0.,0.));
#6010=AXIS2_PLACEMENT_3D('',#5980,#5990,#6000);
#6020=CYLINDRICAL_SURFACE('',#6010,4.5);
#6030=ORIENTED_EDGE('',*,*,#150,.F.);
#6040=ORIENTED_EDGE('',*,*,#4260,.F.);
#6050=ORIENTED_EDGE('',*,*,#1300,.T.);
#6060=ORIENTED_EDGE('',*,*,#4330,.T.);
#6070=EDGE_LOOP('',(#6060,#6050,#6040,#6030));
#6080=FACE_OUTER_BOUND('',#6070,.T.);
#6090=ADVANCED_FACE('',(#6080),#6020,.F.);
#6100=CARTESIAN_POINT('',(60.,25.,25.));
#6110=DIRECTION('',(1.,0.,0.));
#6120=DIRECTION('',(0.,-1.,0.));
#6130=AXIS2_PLACEMENT_3D('',#6100,#6110,#6120);
#6140=CYLINDRICAL_SURFACE('',#6130,4.5);
#6150=ORIENTED_EDGE('',*,*,#3760,.F.);
#6160=ORIENTED_EDGE('',*,*,#4920,.F.);
#6170=ORIENTED_EDGE('',*,*,#3010,.T.);
#6180=ORIENTED_EDGE('',*,*,#4990,.T.);
#6190=EDGE_LOOP('',(#6180,#6170,#6160,#6150));
#6200=FACE_OUTER_BOUND('',#6190,.T.);
#6210=ADVANCED_FACE('',(#6200),#6140,.F.);
#6220=CARTESIAN_POINT('',(7.5,42.5,6.));
#6230=DIRECTION('',(0.,0.,1.));
#6240=DIRECTION('',(1.,0.,0.));
#6250=AXIS2_PLACEMENT_3D('',#6220,#6230,#6240);
#6260=CYLINDRICAL_SURFACE('',#6250,4.5);
#6270=ORIENTED_EDGE('',*,*,#750,.F.);
#6280=ORIENTED_EDGE('',*,*,#4040,.F.);
#6290=ORIENTED_EDGE('',*,*,#1900,.T.);
#6300=ORIENTED_EDGE('',*,*,#4110,.T.);
#6310=EDGE_LOOP('',(#6300,#6290,#6280,#6270));
#6320=FACE_OUTER_BOUND('',#6310,.T.);
#6330=ADVANCED_FACE('',(#6320),#6260,.F.);
#6340=CARTESIAN_POINT('',(7.5,7.50000000000001,6.));
#6350=DIRECTION('',(0.,0.,1.));
#6360=DIRECTION('',(1.,0.,0.));
#6370=AXIS2_PLACEMENT_3D('',#6340,#6350,#6360);
#6380=CYLINDRICAL_SURFACE('',#6370,4.5);
#6390=ORIENTED_EDGE('',*,*,#450,.F.);
#6400=ORIENTED_EDGE('',*,*,#4700,.F.);
#6410=ORIENTED_EDGE('',*,*,#1600,.T.);
#6420=ORIENTED_EDGE('',*,*,#4770,.T.);
#6430=EDGE_LOOP('',(#6420,#6410,#6400,#6390));
#6440=FACE_OUTER_BOUND('',#6430,.T.);
#6450=ADVANCED_FACE('',(#6440),#6380,.F.);
#6460=CARTESIAN_POINT('',(25.,25.,5.608268));
#6470=DIRECTION('',(0.,0.,1.));
#6480=DIRECTION('',(1.,0.,0.));
#6490=AXIS2_PLACEMENT_3D('',#6460,#6470,#6480);
#6500=CONICAL_SURFACE('',#6490,5.9,1.0471975511966);
#6510=EDGE_CURVE('',#5260,#5150,#5240,.T.);
#6520=ORIENTED_EDGE('',*,*,#6510,.T.);
#6530=ORIENTED_EDGE('',*,*,#5920,.F.);
#6540=ORIENTED_EDGE('',*,*,#1750,.F.);
#6550=ORIENTED_EDGE('',*,*,#5850,.T.);
#6560=EDGE_LOOP('',(#6550,#6540,#6530,#6520));
#6570=FACE_OUTER_BOUND('',#6560,.T.);
#6580=ADVANCED_FACE('',(#6570),#6500,.F.);
#6590=CARTESIAN_POINT('',(25.,25.,0.));
#6600=DIRECTION('',(0.,0.,-1.));
#6610=DIRECTION('',(-1.,0.,0.));
#6620=AXIS2_PLACEMENT_3D('',#6590,#6600,#6610);
#6630=CYLINDRICAL_SURFACE('',#6620,5.9);
#6640=ORIENTED_EDGE('',*,*,#6510,.F.);
#6650=ORIENTED_EDGE('',*,*,#5180,.F.);
#6660=EDGE_CURVE('',#5340,#5170,#5410,.T.);
#6670=ORIENTED_EDGE('',*,*,#6660,.T.);
#6680=ORIENTED_EDGE('',*,*,#5350,.T.);
#6690=EDGE_LOOP('',(#6680,#6670,#6650,#6640));
#6700=FACE_OUTER_BOUND('',#6690,.T.);
#6710=ADVANCED_FACE('',(#6700),#6630,.F.);
#6720=COLOUR_RGB('',1.,0.,0.);
#6730=FILL_AREA_STYLE_COLOUR('',#6720);
#6740=FILL_AREA_STYLE('',(#6730));
#6750=SURFACE_STYLE_FILL_AREA(#6740);
#6760=SURFACE_SIDE_STYLE('',(#6750));
#6770=SURFACE_STYLE_USAGE(.BOTH.,#6760);
#6780=PRESENTATION_STYLE_ASSIGNMENT((#6770));
#6790=CARTESIAN_POINT('',(25.,25.,0.391732157645161));
#6800=DIRECTION('',(0.,0.,-1.));
#6810=DIRECTION('',(-1.,0.,0.));
#6820=AXIS2_PLACEMENT_3D('',#6790,#6800,#6810);
#6830=CONICAL_SURFACE('',#6820,5.9,1.0471975511966);
#6840=ORIENTED_EDGE('',*,*,#6660,.F.);
#6850=ORIENTED_EDGE('',*,*,#5700,.F.);
#6860=ORIENTED_EDGE('',*,*,#600,.T.);
#6870=ORIENTED_EDGE('',*,*,#5630,.T.);
#6880=EDGE_LOOP('',(#6870,#6860,#6850,#6840));
#6890=FACE_OUTER_BOUND('',#6880,.T.);
#6900=ADVANCED_FACE('',(#6890),#6830,.F.);
#6910=CARTESIAN_POINT('',(42.5,7.5,6.));
#6920=DIRECTION('',(0.,0.,1.));
#6930=DIRECTION('',(1.,0.,0.));
#6940=AXIS2_PLACEMENT_3D('',#6910,#6920,#6930);
#6950=CYLINDRICAL_SURFACE('',#6940,4.5);
#6960=ORIENTED_EDGE('',*,*,#300,.F.);
#6970=ORIENTED_EDGE('',*,*,#4480,.F.);
#6980=ORIENTED_EDGE('',*,*,#1450,.T.);
#6990=ORIENTED_EDGE('',*,*,#4550,.T.);
#7000=EDGE_LOOP('',(#6990,#6980,#6970,#6960));
#7010=FACE_OUTER_BOUND('',#7000,.T.);
#7020=ADVANCED_FACE('',(#7010),#6950,.F.);
#7030=CLOSED_SHELL('',(#2680,#3070,#3380,#3500,#3820,#3940,#4160,#4380,
#4600,#4820,#5040,#5460,#5750,#5970,#6090,#6210,#6330,#6450,#6580,#6710,
#6900,#7020,#2300,#1150));
#7040=MANIFOLD_SOLID_BREP('',#7030);
#7050=CARTESIAN_POINT('',(0.,0.,0.));
#7060=DIRECTION('',(0.,0.,1.));
#7070=DIRECTION('',(1.,0.,0.));
#7080=AXIS2_PLACEMENT_3D('',#7050,#7060,#7070);
#7090=APPLICATION_CONTEXT(' ');
#7100=APPLICATION_PROTOCOL_DEFINITION(' ','automotive_design',1998,#7090
);
#7110=PRODUCT_CONTEXT('',#7090,'mechanical');
#7120=PRODUCT_DEFINITION_CONTEXT('part definition',#7090,'design');
#7130=PRODUCT('Anschlusswinkel-MMS-55_G14_55.0395_PX176335',
'Anschlusswinkel-MMS-55_G14_55.0395_PX176335','',(#7110));
#7140=PRODUCT_RELATED_PRODUCT_CATEGORY('part',' ',(#7130));
#7150=PRODUCT_DEFINITION_FORMATION_WITH_SPECIFIED_SOURCE('','',#7130,
.BOUGHT.);
#7160=PRODUCT_DEFINITION('',' ',#7150,#7120);
#7170=PRODUCT_DEFINITION_SHAPE('','',#7160);
#7180=DIMENSIONAL_EXPONENTS(1.,0.,0.,0.,0.,0.,0.);
#7190=DIMENSIONAL_EXPONENTS(0.,0.,0.,0.,0.,0.,0.);
#7200=DIMENSIONAL_EXPONENTS(0.,0.,0.,0.,0.,0.,0.);
#7210=(LENGTH_UNIT() NAMED_UNIT(*) SI_UNIT(.MILLI.,.METRE.));
#7220=(NAMED_UNIT(*) PLANE_ANGLE_UNIT() SI_UNIT($,.RADIAN.));
#7230=(NAMED_UNIT(*) SI_UNIT($,.STERADIAN.) SOLID_ANGLE_UNIT());
#7240=(GEOMETRIC_REPRESENTATION_CONTEXT(3) 
GLOBAL_UNCERTAINTY_ASSIGNED_CONTEXT((#7250)) 
GLOBAL_UNIT_ASSIGNED_CONTEXT((#7210,#7220,#7230)) REPRESENTATION_CONTEXT
('',''));
#7250=UNCERTAINTY_MEASURE_WITH_UNIT(LENGTH_MEASURE(1.E-6),#7210,
'distance_accuracy_value','maximum gap value');
#7260=ADVANCED_BREP_SHAPE_REPRESENTATION('',(#7080,#7040),#7240);
#7270=SHAPE_DEFINITION_REPRESENTATION(#7170,#7260);
#7280=COLOUR_RGB('',0.690196096897125,0.886274576187134,1.);
#7290=FILL_AREA_STYLE_COLOUR('',#7280);
#7300=FILL_AREA_STYLE('',(#7290));
#7310=SURFACE_STYLE_FILL_AREA(#7300);
#7320=SURFACE_SIDE_STYLE('',(#7310));
#7330=SURFACE_STYLE_USAGE(.BOTH.,#7320);
#7340=PRESENTATION_STYLE_ASSIGNMENT((#7330));
#7350=STYLED_ITEM('',(#7340),#7040);
#7360=OVER_RIDING_STYLED_ITEM('',(#5530),#5460,#7350);
#7370=OVER_RIDING_STYLED_ITEM('',(#6780),#6710,#7350);
#7380=DRAUGHTING_MODEL('',(#7350,#7360,#7370),#7240);
ENDSEC;
END-ISO-10303-21;
