ISO-10303-21;
HEADER;
FILE_DESCRIPTION(('Creo Elements/Direct Modeling STEP Export'),'2;1');
FILE_NAME(
'//KR-CAD2/PhoenixTemp/karl.letzgus/Konvertierung/33.0095_Flachnutenstei
n-MMS-33_M5.stp','2022-03-18T13:57:13',(''),(''),
'PTC Creo Elements/Direct Modeling STEP processor for AP214 (Solid Model
)',
'PTC Creo Elements/Direct Modeling 19.0C  15-Aug-2015 (C) Parametric Tec
hnology GmbH','');
FILE_SCHEMA(('AUTOMOTIVE_DESIGN { 1 0 10303 214 1 1 1 1 }'));
ENDSEC;
DATA;
#10=CARTESIAN_POINT('',(-13.769991335,8.,-1.97));
#20=DIRECTION('',(-0.,-1.,-0.));
#30=DIRECTION('',(-1.,0.,0.));
#40=AXIS2_PLACEMENT_3D('',#10,#20,#30);
#50=PLANE('',#40);
#60=CARTESIAN_POINT('',(0.,8.,-5.));
#70=DIRECTION('',(-1.,0.,0.));
#80=VECTOR('',#70,1.);
#90=LINE('',#60,#80);
#100=CARTESIAN_POINT('',(-2.34314575,8.,-5.));
#110=VERTEX_POINT('',#100);
#120=CARTESIAN_POINT('',(-13.65685425,8.,-5.));
#130=VERTEX_POINT('',#120);
#140=EDGE_CURVE('',#110,#130,#90,.T.);
#150=ORIENTED_EDGE('',*,*,#140,.T.);
#160=CARTESIAN_POINT('',(-2.34314575,8.,0.));
#170=DIRECTION('',(0.,0.,-1.));
#180=VECTOR('',#170,1.);
#190=LINE('',#160,#180);
#200=CARTESIAN_POINT('',(-2.34314575,8.,-2.));
#210=VERTEX_POINT('',#200);
#220=EDGE_CURVE('',#210,#110,#190,.T.);
#230=ORIENTED_EDGE('',*,*,#220,.T.);
#240=CARTESIAN_POINT('',(0.,8.,-2.));
#250=DIRECTION('',(-1.,0.,0.));
#260=VECTOR('',#250,1.);
#270=LINE('',#240,#260);
#280=CARTESIAN_POINT('',(-13.65685425,8.00000000000001,-2.));
#290=VERTEX_POINT('',#280);
#300=EDGE_CURVE('',#210,#290,#270,.T.);
#310=ORIENTED_EDGE('',*,*,#300,.F.);
#320=CARTESIAN_POINT('',(-13.65685425,8.,0.));
#330=DIRECTION('',(0.,0.,-1.));
#340=VECTOR('',#330,1.);
#350=LINE('',#320,#340);
#360=EDGE_CURVE('',#290,#130,#350,.T.);
#370=ORIENTED_EDGE('',*,*,#360,.F.);
#380=EDGE_LOOP('',(#370,#310,#230,#150));
#390=FACE_OUTER_BOUND('',#380,.T.);
#400=ADVANCED_FACE('',(#390),#50,.F.);
#410=CARTESIAN_POINT('',(-13.929991335,-8.16,-2.));
#420=DIRECTION('',(0.,0.,1.));
#430=DIRECTION('',(1.,0.,0.));
#440=AXIS2_PLACEMENT_3D('',#410,#420,#430);
#450=PLANE('',#440);
#460=CARTESIAN_POINT('',(0.,0.,-2.));
#470=DIRECTION('',(0.,0.,1.));
#480=DIRECTION('',(1.,0.,0.));
#490=AXIS2_PLACEMENT_3D('',#460,#470,#480);
#500=CIRCLE('',#490,2.5);
#510=CARTESIAN_POINT('',(2.5,0.,-2.));
#520=VERTEX_POINT('',#510);
#530=CARTESIAN_POINT('',(-2.5,3.06161699786838E-16,-2.));
#540=VERTEX_POINT('',#530);
#550=EDGE_CURVE('',#520,#540,#500,.T.);
#560=ORIENTED_EDGE('',*,*,#550,.F.);
#570=EDGE_CURVE('',#540,#520,#500,.T.);
#580=ORIENTED_EDGE('',*,*,#570,.F.);
#590=EDGE_LOOP('',(#580,#560));
#600=FACE_BOUND('',#590,.T.);
#610=CARTESIAN_POINT('',(0.,-8.,-2.));
#620=DIRECTION('',(1.,0.,0.));
#630=VECTOR('',#620,1.);
#640=LINE('',#610,#630);
#650=CARTESIAN_POINT('',(2.34314575,-8.,-2.));
#660=VERTEX_POINT('',#650);
#670=CARTESIAN_POINT('',(13.65685425,-8.,-2.));
#680=VERTEX_POINT('',#670);
#690=EDGE_CURVE('',#660,#680,#640,.T.);
#700=ORIENTED_EDGE('',*,*,#690,.T.);
#710=CARTESIAN_POINT('',(-5.65685425,0.,-2.));
#720=DIRECTION('',(0.707106781186548,-0.707106781186548,0.));
#730=VECTOR('',#720,1.);
#740=LINE('',#710,#730);
#750=EDGE_CURVE('',#290,#660,#740,.T.);
#760=ORIENTED_EDGE('',*,*,#750,.T.);
#770=ORIENTED_EDGE('',*,*,#300,.T.);
#780=CARTESIAN_POINT('',(5.65685425,0.,-2.));
#790=DIRECTION('',(-0.707106781186548,0.707106781186548,0.));
#800=VECTOR('',#790,1.);
#810=LINE('',#780,#800);
#820=EDGE_CURVE('',#680,#210,#810,.T.);
#830=ORIENTED_EDGE('',*,*,#820,.T.);
#840=EDGE_LOOP('',(#830,#770,#760,#700));
#850=FACE_OUTER_BOUND('',#840,.T.);
#860=ADVANCED_FACE('',(#600,#850),#450,.T.);
#870=CARTESIAN_POINT('',(2.230008665,-8.,-5.03));
#880=DIRECTION('',(-0.,1.,0.));
#890=DIRECTION('',(1.,0.,0.));
#900=AXIS2_PLACEMENT_3D('',#870,#880,#890);
#910=PLANE('',#900);
#920=CARTESIAN_POINT('',(0.,-8.,-5.));
#930=DIRECTION('',(1.,0.,0.));
#940=VECTOR('',#930,1.);
#950=LINE('',#920,#940);
#960=CARTESIAN_POINT('',(2.34314575,-8.,-5.));
#970=VERTEX_POINT('',#960);
#980=CARTESIAN_POINT('',(13.65685425,-8.,-5.));
#990=VERTEX_POINT('',#980);
#1000=EDGE_CURVE('',#970,#990,#950,.T.);
#1010=ORIENTED_EDGE('',*,*,#1000,.T.);
#1020=CARTESIAN_POINT('',(2.34314575,-8.,0.));
#1030=DIRECTION('',(0.,0.,-1.));
#1040=VECTOR('',#1030,1.);
#1050=LINE('',#1020,#1040);
#1060=EDGE_CURVE('',#660,#970,#1050,.T.);
#1070=ORIENTED_EDGE('',*,*,#1060,.T.);
#1080=ORIENTED_EDGE('',*,*,#690,.F.);
#1090=CARTESIAN_POINT('',(13.65685425,-8.,0.));
#1100=DIRECTION('',(0.,0.,-1.));
#1110=VECTOR('',#1100,1.);
#1120=LINE('',#1090,#1110);
#1130=EDGE_CURVE('',#680,#990,#1120,.T.);
#1140=ORIENTED_EDGE('',*,*,#1130,.F.);
#1150=EDGE_LOOP('',(#1140,#1080,#1070,#1010));
#1160=FACE_OUTER_BOUND('',#1150,.T.);
#1170=ADVANCED_FACE('',(#1160),#910,.F.);
#1180=CARTESIAN_POINT('',(0.210008664999997,-8.02,-4.98));
#1190=DIRECTION('',(0.,0.707106781186548,0.707106781186547));
#1200=DIRECTION('',(0.,0.707106781186547,-0.707106781186548));
#1210=AXIS2_PLACEMENT_3D('',#1180,#1190,#1200);
#1220=PLANE('',#1210);
#1230=CARTESIAN_POINT('',(18.65685425,-13.,0.));
#1240=DIRECTION('',(-0.577350269189626,0.577350269189626,
-0.577350269189626));
#1250=VECTOR('',#1240,1.);
#1260=LINE('',#1230,#1250);
#1270=CARTESIAN_POINT('',(11.65685425,-6.,-7.));
#1280=VERTEX_POINT('',#1270);
#1290=EDGE_CURVE('',#990,#1280,#1260,.T.);
#1300=ORIENTED_EDGE('',*,*,#1290,.F.);
#1310=CARTESIAN_POINT('',(0.,-6.,-7.));
#1320=DIRECTION('',(-1.,0.,0.));
#1330=VECTOR('',#1320,1.);
#1340=LINE('',#1310,#1330);
#1350=CARTESIAN_POINT('',(0.343145750000001,-6.,-7.));
#1360=VERTEX_POINT('',#1350);
#1370=EDGE_CURVE('',#1280,#1360,#1340,.T.);
#1380=ORIENTED_EDGE('',*,*,#1370,.F.);
#1390=CARTESIAN_POINT('',(7.34314575,-13.,0.));
#1400=DIRECTION('',(0.577350269189626,-0.577350269189626,
0.577350269189626));
#1410=VECTOR('',#1400,1.);
#1420=LINE('',#1390,#1410);
#1430=EDGE_CURVE('',#1360,#970,#1420,.T.);
#1440=ORIENTED_EDGE('',*,*,#1430,.F.);
#1450=ORIENTED_EDGE('',*,*,#1000,.F.);
#1460=EDGE_LOOP('',(#1450,#1440,#1380,#1300));
#1470=FACE_OUTER_BOUND('',#1460,.T.);
#1480=ADVANCED_FACE('',(#1470),#1220,.F.);
#1490=CARTESIAN_POINT('',(-11.889991335,-6.12,-7.));
#1500=DIRECTION('',(0.,0.,1.));
#1510=DIRECTION('',(1.,0.,0.));
#1520=AXIS2_PLACEMENT_3D('',#1490,#1500,#1510);
#1530=PLANE('',#1520);
#1540=CARTESIAN_POINT('',(0.,0.,-7.));
#1550=DIRECTION('',(0.,0.,1.));
#1560=DIRECTION('',(1.,0.,0.));
#1570=AXIS2_PLACEMENT_3D('',#1540,#1550,#1560);
#1580=CIRCLE('',#1570,2.49999981349996);
#1590=CARTESIAN_POINT('',(2.49999981349996,3.0616167694717E-16,-7.));
#1600=VERTEX_POINT('',#1590);
#1610=CARTESIAN_POINT('',(-2.49999981349996,0.,-7.));
#1620=VERTEX_POINT('',#1610);
#1630=EDGE_CURVE('',#1600,#1620,#1580,.T.);
#1640=ORIENTED_EDGE('',*,*,#1630,.T.);
#1650=EDGE_CURVE('',#1620,#1600,#1580,.T.);
#1660=ORIENTED_EDGE('',*,*,#1650,.T.);
#1670=EDGE_LOOP('',(#1660,#1640));
#1680=FACE_BOUND('',#1670,.T.);
#1690=ORIENTED_EDGE('',*,*,#1370,.T.);
#1700=CARTESIAN_POINT('',(5.65685425,0.,-7.));
#1710=DIRECTION('',(0.707106781186548,-0.707106781186548,0.));
#1720=VECTOR('',#1710,1.);
#1730=LINE('',#1700,#1720);
#1740=CARTESIAN_POINT('',(-0.343145750000001,6.,-7.));
#1750=VERTEX_POINT('',#1740);
#1760=EDGE_CURVE('',#1750,#1280,#1730,.T.);
#1770=ORIENTED_EDGE('',*,*,#1760,.T.);
#1780=CARTESIAN_POINT('',(0.,6.,-7.));
#1790=DIRECTION('',(1.,0.,0.));
#1800=VECTOR('',#1790,1.);
#1810=LINE('',#1780,#1800);
#1820=CARTESIAN_POINT('',(-11.65685425,6.,-7.));
#1830=VERTEX_POINT('',#1820);
#1840=EDGE_CURVE('',#1830,#1750,#1810,.T.);
#1850=ORIENTED_EDGE('',*,*,#1840,.T.);
#1860=CARTESIAN_POINT('',(-5.65685425,0.,-7.));
#1870=DIRECTION('',(-0.707106781186548,0.707106781186548,0.));
#1880=VECTOR('',#1870,1.);
#1890=LINE('',#1860,#1880);
#1900=EDGE_CURVE('',#1360,#1830,#1890,.T.);
#1910=ORIENTED_EDGE('',*,*,#1900,.T.);
#1920=EDGE_LOOP('',(#1910,#1850,#1770,#1690));
#1930=FACE_OUTER_BOUND('',#1920,.T.);
#1940=ADVANCED_FACE('',(#1680,#1930),#1530,.F.);
#1950=CARTESIAN_POINT('',(2.50314575,-8.16,-1.95));
#1960=DIRECTION('',(0.707106781186548,0.707106781186548,0.));
#1970=DIRECTION('',(0.707106781186548,-0.707106781186548,0.));
#1980=AXIS2_PLACEMENT_3D('',#1950,#1960,#1970);
#1990=PLANE('',#1980);
#2000=ORIENTED_EDGE('',*,*,#1430,.T.);
#2010=ORIENTED_EDGE('',*,*,#1900,.F.);
#2020=CARTESIAN_POINT('',(-18.65685425,13.,0.));
#2030=DIRECTION('',(0.577350269189626,-0.577350269189626,
-0.577350269189626));
#2040=VECTOR('',#2030,1.);
#2050=LINE('',#2020,#2040);
#2060=EDGE_CURVE('',#130,#1830,#2050,.T.);
#2070=ORIENTED_EDGE('',*,*,#2060,.T.);
#2080=ORIENTED_EDGE('',*,*,#360,.T.);
#2090=ORIENTED_EDGE('',*,*,#750,.F.);
#2100=ORIENTED_EDGE('',*,*,#1060,.F.);
#2110=EDGE_LOOP('',(#2100,#2090,#2080,#2070,#2010,#2000));
#2120=FACE_OUTER_BOUND('',#2110,.T.);
#2130=ADVANCED_FACE('',(#2120),#1990,.F.);
#2140=CARTESIAN_POINT('',(-13.789991335,5.98,-7.02));
#2150=DIRECTION('',(0.,-0.707106781186548,0.707106781186547));
#2160=DIRECTION('',(0.,0.707106781186547,0.707106781186548));
#2170=AXIS2_PLACEMENT_3D('',#2140,#2150,#2160);
#2180=PLANE('',#2170);
#2190=ORIENTED_EDGE('',*,*,#2060,.F.);
#2200=ORIENTED_EDGE('',*,*,#1840,.F.);
#2210=CARTESIAN_POINT('',(-7.34314575,13.,0.));
#2220=DIRECTION('',(-0.577350269189626,0.577350269189626,
0.577350269189626));
#2230=VECTOR('',#2220,1.);
#2240=LINE('',#2210,#2230);
#2250=EDGE_CURVE('',#1750,#110,#2240,.T.);
#2260=ORIENTED_EDGE('',*,*,#2250,.F.);
#2270=ORIENTED_EDGE('',*,*,#140,.F.);
#2280=EDGE_LOOP('',(#2270,#2260,#2200,#2190));
#2290=FACE_OUTER_BOUND('',#2280,.T.);
#2300=ADVANCED_FACE('',(#2290),#2180,.F.);
#2310=CARTESIAN_POINT('',(-2.50314575,8.16,-1.95));
#2320=DIRECTION('',(-0.707106781186548,-0.707106781186548,-0.));
#2330=DIRECTION('',(-0.707106781186548,0.707106781186548,0.));
#2340=AXIS2_PLACEMENT_3D('',#2310,#2320,#2330);
#2350=PLANE('',#2340);
#2360=ORIENTED_EDGE('',*,*,#1290,.T.);
#2370=ORIENTED_EDGE('',*,*,#1130,.T.);
#2380=ORIENTED_EDGE('',*,*,#820,.F.);
#2390=ORIENTED_EDGE('',*,*,#220,.F.);
#2400=ORIENTED_EDGE('',*,*,#2250,.T.);
#2410=ORIENTED_EDGE('',*,*,#1760,.F.);
#2420=EDGE_LOOP('',(#2410,#2400,#2390,#2380,#2370,#2360));
#2430=FACE_OUTER_BOUND('',#2420,.T.);
#2440=ADVANCED_FACE('',(#2430),#2350,.F.);
#2450=CARTESIAN_POINT('',(0.,0.,-2.));
#2460=DIRECTION('',(0.,0.,1.));
#2470=DIRECTION('',(1.,0.,0.));
#2480=AXIS2_PLACEMENT_3D('',#2450,#2460,#2470);
#2490=CYLINDRICAL_SURFACE('',#2480,2.1);
#2500=CARTESIAN_POINT('',(-2.1,2.57175827820944E-16,-2.));
#2510=DIRECTION('',(0.,0.,1.));
#2520=VECTOR('',#2510,1.);
#2530=LINE('',#2500,#2520);
#2540=CARTESIAN_POINT('',(-2.1,2.57175827820944E-16,-6.76906));
#2550=VERTEX_POINT('',#2540);
#2560=CARTESIAN_POINT('',(-2.1,2.57175827820944E-16,-2.23094010767585));
#2570=VERTEX_POINT('',#2560);
#2580=EDGE_CURVE('',#2550,#2570,#2530,.T.);
#2590=ORIENTED_EDGE('',*,*,#2580,.T.);
#2600=CARTESIAN_POINT('',(0.,0.,-6.76906));
#2610=DIRECTION('',(0.,0.,1.));
#2620=DIRECTION('',(1.,0.,0.));
#2630=AXIS2_PLACEMENT_3D('',#2600,#2610,#2620);
#2640=CIRCLE('',#2630,2.1);
#2650=CARTESIAN_POINT('',(2.1,0.,-6.76906));
#2660=VERTEX_POINT('',#2650);
#2670=EDGE_CURVE('',#2550,#2660,#2640,.T.);
#2680=ORIENTED_EDGE('',*,*,#2670,.F.);
#2690=CARTESIAN_POINT('',(2.1,0.,-2.));
#2700=DIRECTION('',(0.,0.,1.));
#2710=VECTOR('',#2700,1.);
#2720=LINE('',#2690,#2710);
#2730=CARTESIAN_POINT('',(2.1,0.,-2.23094010767585));
#2740=VERTEX_POINT('',#2730);
#2750=EDGE_CURVE('',#2660,#2740,#2720,.T.);
#2760=ORIENTED_EDGE('',*,*,#2750,.F.);
#2770=CARTESIAN_POINT('',(0.,0.,-2.23094010767585));
#2780=DIRECTION('',(0.,0.,1.));
#2790=DIRECTION('',(1.,0.,0.));
#2800=AXIS2_PLACEMENT_3D('',#2770,#2780,#2790);
#2810=CIRCLE('',#2800,2.1);
#2820=EDGE_CURVE('',#2570,#2740,#2810,.T.);
#2830=ORIENTED_EDGE('',*,*,#2820,.T.);
#2840=EDGE_LOOP('',(#2830,#2760,#2680,#2590));
#2850=FACE_OUTER_BOUND('',#2840,.T.);
#2860=ADVANCED_FACE('M5x0.8_1085334',(#2850),#2490,.F.);
#2870=COLOUR_RGB('',1.,0.,0.);
#2880=FILL_AREA_STYLE_COLOUR('',#2870);
#2890=FILL_AREA_STYLE('',(#2880));
#2900=SURFACE_STYLE_FILL_AREA(#2890);
#2910=SURFACE_SIDE_STYLE('',(#2900));
#2920=SURFACE_STYLE_USAGE(.BOTH.,#2910);
#2930=PRESENTATION_STYLE_ASSIGNMENT((#2920));
#2940=CARTESIAN_POINT('',(0.,0.,-2.23094010767585));
#2950=DIRECTION('',(0.,0.,1.));
#2960=DIRECTION('',(1.,0.,0.));
#2970=AXIS2_PLACEMENT_3D('',#2940,#2950,#2960);
#2980=CONICAL_SURFACE('',#2970,2.1,1.0471975511966);
#2990=CARTESIAN_POINT('',(2.1,0.,-2.23094010767585));
#3000=DIRECTION('',(0.866025403784439,0.,0.5));
#3010=VECTOR('',#3000,2.42487113059643);
#3020=LINE('',#2990,#3010);
#3030=EDGE_CURVE('',#2740,#520,#3020,.T.);
#3040=ORIENTED_EDGE('',*,*,#3030,.F.);
#3050=ORIENTED_EDGE('',*,*,#570,.T.);
#3060=CARTESIAN_POINT('',(-2.1,2.57175827820944E-16,-2.23094010767585));
#3070=DIRECTION('',(-0.866025403784439,1.06057523872491E-16,0.5));
#3080=VECTOR('',#3070,2.42487113059643);
#3090=LINE('',#3060,#3080);
#3100=EDGE_CURVE('',#2570,#540,#3090,.T.);
#3110=ORIENTED_EDGE('',*,*,#3100,.T.);
#3120=ORIENTED_EDGE('',*,*,#2820,.F.);
#3130=EDGE_LOOP('',(#3120,#3110,#3050,#3040));
#3140=FACE_OUTER_BOUND('',#3130,.T.);
#3150=ADVANCED_FACE('',(#3140),#2980,.F.);
#3160=CARTESIAN_POINT('',(0.,0.,-6.76906));
#3170=DIRECTION('',(0.,0.,-1.));
#3180=DIRECTION('',(-1.,0.,0.));
#3190=AXIS2_PLACEMENT_3D('',#3160,#3170,#3180);
#3200=CONICAL_SURFACE('',#3190,2.1,1.0471975511966);
#3210=CARTESIAN_POINT('',(-2.1,0.,-6.76906));
#3220=DIRECTION('',(-0.866025403784439,0.,-0.499999999999999));
#3230=VECTOR('',#3220,2.42487113059643);
#3240=LINE('',#3210,#3230);
#3250=EDGE_CURVE('',#2550,#1620,#3240,.T.);
#3260=ORIENTED_EDGE('',*,*,#3250,.F.);
#3270=ORIENTED_EDGE('',*,*,#1650,.F.);
#3280=CARTESIAN_POINT('',(2.1,2.57175827820944E-16,-6.76906));
#3290=DIRECTION('',(0.866025403784439,1.06057523872491E-16,
-0.499999999999999));
#3300=VECTOR('',#3290,2.42487113059643);
#3310=LINE('',#3280,#3300);
#3320=EDGE_CURVE('',#2660,#1600,#3310,.T.);
#3330=ORIENTED_EDGE('',*,*,#3320,.T.);
#3340=ORIENTED_EDGE('',*,*,#2670,.T.);
#3350=EDGE_LOOP('',(#3340,#3330,#3270,#3260));
#3360=FACE_OUTER_BOUND('',#3350,.T.);
#3370=ADVANCED_FACE('',(#3360),#3200,.F.);
#3380=CARTESIAN_POINT('',(0.,0.,-2.23094010767585));
#3390=DIRECTION('',(0.,0.,1.));
#3400=DIRECTION('',(1.,0.,0.));
#3410=AXIS2_PLACEMENT_3D('',#3380,#3390,#3400);
#3420=CONICAL_SURFACE('',#3410,2.1,1.0471975511966);
#3430=EDGE_CURVE('',#2740,#2570,#2810,.T.);
#3440=ORIENTED_EDGE('',*,*,#3430,.F.);
#3450=ORIENTED_EDGE('',*,*,#3100,.F.);
#3460=ORIENTED_EDGE('',*,*,#550,.T.);
#3470=ORIENTED_EDGE('',*,*,#3030,.T.);
#3480=EDGE_LOOP('',(#3470,#3460,#3450,#3440));
#3490=FACE_OUTER_BOUND('',#3480,.T.);
#3500=ADVANCED_FACE('',(#3490),#3420,.F.);
#3510=CARTESIAN_POINT('',(0.,0.,-2.));
#3520=DIRECTION('',(0.,0.,1.));
#3530=DIRECTION('',(1.,0.,0.));
#3540=AXIS2_PLACEMENT_3D('',#3510,#3520,#3530);
#3550=CYLINDRICAL_SURFACE('',#3540,2.1);
#3560=EDGE_CURVE('',#2660,#2550,#2640,.T.);
#3570=ORIENTED_EDGE('',*,*,#3560,.F.);
#3580=ORIENTED_EDGE('',*,*,#2580,.F.);
#3590=ORIENTED_EDGE('',*,*,#3430,.T.);
#3600=ORIENTED_EDGE('',*,*,#2750,.T.);
#3610=EDGE_LOOP('',(#3600,#3590,#3580,#3570));
#3620=FACE_OUTER_BOUND('',#3610,.T.);
#3630=ADVANCED_FACE('',(#3620),#3550,.F.);
#3640=COLOUR_RGB('',1.,0.,0.);
#3650=FILL_AREA_STYLE_COLOUR('',#3640);
#3660=FILL_AREA_STYLE('',(#3650));
#3670=SURFACE_STYLE_FILL_AREA(#3660);
#3680=SURFACE_SIDE_STYLE('',(#3670));
#3690=SURFACE_STYLE_USAGE(.BOTH.,#3680);
#3700=PRESENTATION_STYLE_ASSIGNMENT((#3690));
#3710=CARTESIAN_POINT('',(0.,0.,-6.76906));
#3720=DIRECTION('',(0.,0.,-1.));
#3730=DIRECTION('',(-1.,0.,0.));
#3740=AXIS2_PLACEMENT_3D('',#3710,#3720,#3730);
#3750=CONICAL_SURFACE('',#3740,2.1,1.0471975511966);
#3760=ORIENTED_EDGE('',*,*,#3560,.T.);
#3770=ORIENTED_EDGE('',*,*,#3320,.F.);
#3780=ORIENTED_EDGE('',*,*,#1630,.F.);
#3790=ORIENTED_EDGE('',*,*,#3250,.T.);
#3800=EDGE_LOOP('',(#3790,#3780,#3770,#3760));
#3810=FACE_OUTER_BOUND('',#3800,.T.);
#3820=ADVANCED_FACE('',(#3810),#3750,.F.);
#3830=CLOSED_SHELL('',(#400,#860,#1170,#1480,#1940,#2130,#2300,#2440,
#2860,#3150,#3370,#3500,#3630,#3820));
#3840=MANIFOLD_SOLID_BREP('',#3830);
#3850=CARTESIAN_POINT('',(0.,0.,0.));
#3860=DIRECTION('',(0.,0.,1.));
#3870=DIRECTION('',(1.,0.,0.));
#3880=AXIS2_PLACEMENT_3D('',#3850,#3860,#3870);
#3890=APPLICATION_CONTEXT(' ');
#3900=APPLICATION_PROTOCOL_DEFINITION(' ','automotive_design',1998,#3890
);
#3910=PRODUCT_CONTEXT('',#3890,'mechanical');
#3920=PRODUCT_DEFINITION_CONTEXT('part definition',#3890,'design');
#3930=PRODUCT('Flachnutenstein-MMS-33_M5_33.0095_PX175975',
'Flachnutenstein-MMS-33_M5_33.0095_PX175975','',(#3910));
#3940=PRODUCT_RELATED_PRODUCT_CATEGORY('part',' ',(#3930));
#3950=PRODUCT_DEFINITION_FORMATION_WITH_SPECIFIED_SOURCE('','',#3930,
.BOUGHT.);
#3960=PRODUCT_DEFINITION('',' ',#3950,#3920);
#3970=PRODUCT_DEFINITION_SHAPE('','',#3960);
#3980=DIMENSIONAL_EXPONENTS(1.,0.,0.,0.,0.,0.,0.);
#3990=DIMENSIONAL_EXPONENTS(0.,0.,0.,0.,0.,0.,0.);
#4000=DIMENSIONAL_EXPONENTS(0.,0.,0.,0.,0.,0.,0.);
#4010=(LENGTH_UNIT() NAMED_UNIT(*) SI_UNIT(.MILLI.,.METRE.));
#4020=(NAMED_UNIT(*) PLANE_ANGLE_UNIT() SI_UNIT($,.RADIAN.));
#4030=(NAMED_UNIT(*) SI_UNIT($,.STERADIAN.) SOLID_ANGLE_UNIT());
#4040=(GEOMETRIC_REPRESENTATION_CONTEXT(3) 
GLOBAL_UNCERTAINTY_ASSIGNED_CONTEXT((#4050)) 
GLOBAL_UNIT_ASSIGNED_CONTEXT((#4010,#4020,#4030)) REPRESENTATION_CONTEXT
('',''));
#4050=UNCERTAINTY_MEASURE_WITH_UNIT(LENGTH_MEASURE(1.E-6),#4010,
'distance_accuracy_value','maximum gap value');
#4060=ADVANCED_BREP_SHAPE_REPRESENTATION('',(#3880,#3840),#4040);
#4070=SHAPE_DEFINITION_REPRESENTATION(#3970,#4060);
#4080=COLOUR_RGB('',0.690196096897125,0.886274576187134,1.);
#4090=FILL_AREA_STYLE_COLOUR('',#4080);
#4100=FILL_AREA_STYLE('',(#4090));
#4110=SURFACE_STYLE_FILL_AREA(#4100);
#4120=SURFACE_SIDE_STYLE('',(#4110));
#4130=SURFACE_STYLE_USAGE(.BOTH.,#4120);
#4140=PRESENTATION_STYLE_ASSIGNMENT((#4130));
#4150=STYLED_ITEM('',(#4140),#3840);
#4160=OVER_RIDING_STYLED_ITEM('',(#2930),#2860,#4150);
#4170=OVER_RIDING_STYLED_ITEM('',(#3700),#3630,#4150);
#4180=DRAUGHTING_MODEL('',(#4150,#4160,#4170),#4040);
ENDSEC;
END-ISO-10303-21;
