ISO-10303-21;
HEADER;
FILE_DESCRIPTION(('Creo Elements/Direct Modeling STEP Export'),'2;1');
FILE_NAME(
'//KR-CAD2/PhoenixTemp/karl.letzgus/Konvertierung/33.0160_Klemmschiene-M
MS-33_22mm.stp','2022-03-18T13:57:30',(''),(''),
'PTC Creo Elements/Direct Modeling STEP processor for AP214 (Solid Model
)',
'PTC Creo Elements/Direct Modeling 19.0C  15-Aug-2015 (C) Parametric Tec
hnology GmbH','');
FILE_SCHEMA(('AUTOMOTIVE_DESIGN { 1 0 10303 214 1 1 1 1 }'));
ENDSEC;
DATA;
#10=CARTESIAN_POINT('',(0.,0.,-55.));
#20=DIRECTION('',(0.,0.,1.));
#30=DIRECTION('',(1.,0.,0.));
#40=AXIS2_PLACEMENT_3D('',#10,#20,#30);
#50=PLANE('',#40);
#60=CARTESIAN_POINT('',(1.5,0.,-55.));
#70=DIRECTION('',(0.707106781186548,-0.707106781186548,0.));
#80=VECTOR('',#70,1.);
#90=LINE('',#60,#80);
#100=CARTESIAN_POINT('',(-2.22044604925031E-16,1.5,-55.));
#110=VERTEX_POINT('',#100);
#120=CARTESIAN_POINT('',(1.5,-1.11022302462516E-16,-55.));
#130=VERTEX_POINT('',#120);
#140=EDGE_CURVE('',#110,#130,#90,.T.);
#150=ORIENTED_EDGE('',*,*,#140,.F.);
#160=CARTESIAN_POINT('',(0.,0.,-55.));
#170=DIRECTION('',(1.,0.,0.));
#180=VECTOR('',#170,1.);
#190=LINE('',#160,#180);
#200=CARTESIAN_POINT('',(13.5,8.88178419700125E-16,-55.));
#210=VERTEX_POINT('',#200);
#220=EDGE_CURVE('',#130,#210,#190,.T.);
#230=ORIENTED_EDGE('',*,*,#220,.F.);
#240=CARTESIAN_POINT('',(13.5,0.,-55.));
#250=DIRECTION('',(-0.707106781186548,-0.707106781186548,0.));
#260=VECTOR('',#250,1.);
#270=LINE('',#240,#260);
#280=CARTESIAN_POINT('',(15.,1.5,-55.));
#290=VERTEX_POINT('',#280);
#300=EDGE_CURVE('',#290,#210,#270,.T.);
#310=ORIENTED_EDGE('',*,*,#300,.T.);
#320=CARTESIAN_POINT('',(15.,0.,-55.));
#330=DIRECTION('',(3.62521803959235E-16,1.,0.));
#340=VECTOR('',#330,1.);
#350=LINE('',#320,#340);
#360=CARTESIAN_POINT('',(15.,5.,-55.));
#370=VERTEX_POINT('',#360);
#380=EDGE_CURVE('',#290,#370,#350,.T.);
#390=ORIENTED_EDGE('',*,*,#380,.F.);
#400=CARTESIAN_POINT('',(15.,5.,-55.));
#410=DIRECTION('',(-1.,0.,0.));
#420=VECTOR('',#410,1.);
#430=LINE('',#400,#420);
#440=CARTESIAN_POINT('',(11.5,5.,-55.));
#450=VERTEX_POINT('',#440);
#460=EDGE_CURVE('',#370,#450,#430,.T.);
#470=ORIENTED_EDGE('',*,*,#460,.F.);
#480=CARTESIAN_POINT('',(11.5,4.9,-55.));
#490=DIRECTION('',(0.,1.,0.));
#500=VECTOR('',#490,1.);
#510=LINE('',#480,#500);
#520=CARTESIAN_POINT('',(11.5,6.5,-55.));
#530=VERTEX_POINT('',#520);
#540=EDGE_CURVE('',#450,#530,#510,.T.);
#550=ORIENTED_EDGE('',*,*,#540,.F.);
#560=CARTESIAN_POINT('',(11.5,6.5,-55.));
#570=DIRECTION('',(-1.,-3.33066907387547E-16,0.));
#580=VECTOR('',#570,1.);
#590=LINE('',#560,#580);
#600=CARTESIAN_POINT('',(3.5,6.5,-55.));
#610=VERTEX_POINT('',#600);
#620=EDGE_CURVE('',#530,#610,#590,.T.);
#630=ORIENTED_EDGE('',*,*,#620,.F.);
#640=CARTESIAN_POINT('',(3.5,6.4,-55.));
#650=DIRECTION('',(0.,-1.,0.));
#660=VECTOR('',#650,1.);
#670=LINE('',#640,#660);
#680=CARTESIAN_POINT('',(3.5,5.,-55.));
#690=VERTEX_POINT('',#680);
#700=EDGE_CURVE('',#610,#690,#670,.T.);
#710=ORIENTED_EDGE('',*,*,#700,.F.);
#720=CARTESIAN_POINT('',(0.,5.,-55.));
#730=DIRECTION('',(1.,0.,0.));
#740=VECTOR('',#730,1.);
#750=LINE('',#720,#740);
#760=CARTESIAN_POINT('',(0.,5.,-55.));
#770=VERTEX_POINT('',#760);
#780=EDGE_CURVE('',#770,#690,#750,.T.);
#790=ORIENTED_EDGE('',*,*,#780,.T.);
#800=CARTESIAN_POINT('',(0.,0.,-55.));
#810=DIRECTION('',(0.,1.,0.));
#820=VECTOR('',#810,1.);
#830=LINE('',#800,#820);
#840=EDGE_CURVE('',#110,#770,#830,.T.);
#850=ORIENTED_EDGE('',*,*,#840,.T.);
#860=EDGE_LOOP('',(#850,#790,#710,#630,#550,#470,#390,#310,#230,#150));
#870=FACE_OUTER_BOUND('',#860,.T.);
#880=ADVANCED_FACE('',(#870),#50,.F.);
#890=CARTESIAN_POINT('',(0.,0.,-33.));
#900=DIRECTION('',(0.,0.,1.));
#910=DIRECTION('',(1.,0.,0.));
#920=AXIS2_PLACEMENT_3D('',#890,#900,#910);
#930=PLANE('',#920);
#940=CARTESIAN_POINT('',(1.5,0.,-33.));
#950=DIRECTION('',(0.707106781186548,-0.707106781186548,0.));
#960=VECTOR('',#950,1.);
#970=LINE('',#940,#960);
#980=CARTESIAN_POINT('',(-2.22044604925031E-16,1.5,-33.));
#990=VERTEX_POINT('',#980);
#1000=CARTESIAN_POINT('',(1.5,-2.15105711021124E-16,-33.));
#1010=VERTEX_POINT('',#1000);
#1020=EDGE_CURVE('',#990,#1010,#970,.T.);
#1030=ORIENTED_EDGE('',*,*,#1020,.T.);
#1040=CARTESIAN_POINT('',(0.,0.,-33.));
#1050=DIRECTION('',(0.,1.,0.));
#1060=VECTOR('',#1050,1.);
#1070=LINE('',#1040,#1060);
#1080=CARTESIAN_POINT('',(0.,5.,-33.));
#1090=VERTEX_POINT('',#1080);
#1100=EDGE_CURVE('',#990,#1090,#1070,.T.);
#1110=ORIENTED_EDGE('',*,*,#1100,.F.);
#1120=CARTESIAN_POINT('',(0.,5.,-33.));
#1130=DIRECTION('',(1.,0.,0.));
#1140=VECTOR('',#1130,1.);
#1150=LINE('',#1120,#1140);
#1160=CARTESIAN_POINT('',(3.5,5.,-33.));
#1170=VERTEX_POINT('',#1160);
#1180=EDGE_CURVE('',#1090,#1170,#1150,.T.);
#1190=ORIENTED_EDGE('',*,*,#1180,.F.);
#1200=CARTESIAN_POINT('',(3.5,6.4,-33.));
#1210=DIRECTION('',(0.,-1.,0.));
#1220=VECTOR('',#1210,1.);
#1230=LINE('',#1200,#1220);
#1240=CARTESIAN_POINT('',(3.5,6.5,-33.));
#1250=VERTEX_POINT('',#1240);
#1260=EDGE_CURVE('',#1250,#1170,#1230,.T.);
#1270=ORIENTED_EDGE('',*,*,#1260,.T.);
#1280=CARTESIAN_POINT('',(11.5,6.5,-33.));
#1290=DIRECTION('',(-1.,-3.33066907387547E-16,0.));
#1300=VECTOR('',#1290,1.);
#1310=LINE('',#1280,#1300);
#1320=CARTESIAN_POINT('',(11.5,6.5,-33.));
#1330=VERTEX_POINT('',#1320);
#1340=EDGE_CURVE('',#1330,#1250,#1310,.T.);
#1350=ORIENTED_EDGE('',*,*,#1340,.T.);
#1360=CARTESIAN_POINT('',(11.5,4.9,-33.));
#1370=DIRECTION('',(0.,1.,0.));
#1380=VECTOR('',#1370,1.);
#1390=LINE('',#1360,#1380);
#1400=CARTESIAN_POINT('',(11.5,5.,-33.));
#1410=VERTEX_POINT('',#1400);
#1420=EDGE_CURVE('',#1410,#1330,#1390,.T.);
#1430=ORIENTED_EDGE('',*,*,#1420,.T.);
#1440=CARTESIAN_POINT('',(15.,5.,-33.));
#1450=DIRECTION('',(-1.,0.,0.));
#1460=VECTOR('',#1450,1.);
#1470=LINE('',#1440,#1460);
#1480=CARTESIAN_POINT('',(15.,5.,-33.));
#1490=VERTEX_POINT('',#1480);
#1500=EDGE_CURVE('',#1490,#1410,#1470,.T.);
#1510=ORIENTED_EDGE('',*,*,#1500,.T.);
#1520=CARTESIAN_POINT('',(15.,0.,-33.));
#1530=DIRECTION('',(3.62521803959235E-16,1.,0.));
#1540=VECTOR('',#1530,1.);
#1550=LINE('',#1520,#1540);
#1560=CARTESIAN_POINT('',(15.,1.5,-33.));
#1570=VERTEX_POINT('',#1560);
#1580=EDGE_CURVE('',#1570,#1490,#1550,.T.);
#1590=ORIENTED_EDGE('',*,*,#1580,.T.);
#1600=CARTESIAN_POINT('',(13.5,0.,-33.));
#1610=DIRECTION('',(-0.707106781186548,-0.707106781186548,0.));
#1620=VECTOR('',#1610,1.);
#1630=LINE('',#1600,#1620);
#1640=CARTESIAN_POINT('',(13.5,1.72084568816899E-15,-33.));
#1650=VERTEX_POINT('',#1640);
#1660=EDGE_CURVE('',#1570,#1650,#1630,.T.);
#1670=ORIENTED_EDGE('',*,*,#1660,.F.);
#1680=CARTESIAN_POINT('',(0.,0.,-33.));
#1690=DIRECTION('',(1.,0.,0.));
#1700=VECTOR('',#1690,1.);
#1710=LINE('',#1680,#1700);
#1720=EDGE_CURVE('',#1010,#1650,#1710,.T.);
#1730=ORIENTED_EDGE('',*,*,#1720,.T.);
#1740=EDGE_LOOP('',(#1730,#1670,#1590,#1510,#1430,#1350,#1270,#1190,
#1110,#1030));
#1750=FACE_OUTER_BOUND('',#1740,.T.);
#1760=ADVANCED_FACE('',(#1750),#930,.T.);
#1770=CARTESIAN_POINT('',(15.,0.,0.));
#1780=DIRECTION('',(-0.,-1.,-0.));
#1790=DIRECTION('',(-1.,0.,0.));
#1800=AXIS2_PLACEMENT_3D('',#1770,#1780,#1790);
#1810=PLANE('',#1800);
#1820=CARTESIAN_POINT('',(7.5,9.99200644516399E-16,-44.));
#1830=DIRECTION('',(-3.33066907387547E-16,1.,0.));
#1840=DIRECTION('',(1.,3.33066907387547E-16,0.));
#1850=AXIS2_PLACEMENT_3D('',#1820,#1830,#1840);
#1860=CIRCLE('',#1850,2.99999976687494);
#1870=CARTESIAN_POINT('',(10.4999997668749,1.16573417585641E-15,-44.));
#1880=VERTEX_POINT('',#1870);
#1890=CARTESIAN_POINT('',(4.50000023312506,6.66133814775094E-16,-44.));
#1900=VERTEX_POINT('',#1890);
#1910=EDGE_CURVE('',#1880,#1900,#1860,.T.);
#1920=ORIENTED_EDGE('',*,*,#1910,.T.);
#1930=EDGE_CURVE('',#1900,#1880,#1860,.T.);
#1940=ORIENTED_EDGE('',*,*,#1930,.T.);
#1950=EDGE_LOOP('',(#1940,#1920));
#1960=FACE_BOUND('',#1950,.T.);
#1970=ORIENTED_EDGE('',*,*,#1720,.F.);
#1980=CARTESIAN_POINT('',(13.5,0.,-7.49999999999999));
#1990=DIRECTION('',(0.,0.,1.));
#2000=VECTOR('',#1990,1.);
#2010=LINE('',#1980,#2000);
#2020=EDGE_CURVE('',#210,#1650,#2010,.T.);
#2030=ORIENTED_EDGE('',*,*,#2020,.T.);
#2040=ORIENTED_EDGE('',*,*,#220,.T.);
#2050=CARTESIAN_POINT('',(1.5,0.,-7.49999999999999));
#2060=DIRECTION('',(0.,0.,1.));
#2070=VECTOR('',#2060,1.);
#2080=LINE('',#2050,#2070);
#2090=EDGE_CURVE('',#130,#1010,#2080,.T.);
#2100=ORIENTED_EDGE('',*,*,#2090,.F.);
#2110=EDGE_LOOP('',(#2100,#2040,#2030,#1970));
#2120=FACE_OUTER_BOUND('',#2110,.T.);
#2130=ADVANCED_FACE('',(#1960,#2120),#1810,.T.);
#2140=CARTESIAN_POINT('',(15.,4.9,0.));
#2150=DIRECTION('',(1.,-3.62521803959235E-16,0.));
#2160=DIRECTION('',(-3.62521803959235E-16,-1.,0.));
#2170=AXIS2_PLACEMENT_3D('',#2140,#2150,#2160);
#2180=PLANE('',#2170);
#2190=CARTESIAN_POINT('',(15.,1.5,-7.49999999999999));
#2200=DIRECTION('',(0.,0.,1.));
#2210=VECTOR('',#2200,1.);
#2220=LINE('',#2190,#2210);
#2230=EDGE_CURVE('',#290,#1570,#2220,.T.);
#2240=ORIENTED_EDGE('',*,*,#2230,.F.);
#2250=ORIENTED_EDGE('',*,*,#1580,.F.);
#2260=CARTESIAN_POINT('',(15.,5.,0.));
#2270=DIRECTION('',(0.,0.,1.));
#2280=VECTOR('',#2270,1.);
#2290=LINE('',#2260,#2280);
#2300=EDGE_CURVE('',#370,#1490,#2290,.T.);
#2310=ORIENTED_EDGE('',*,*,#2300,.T.);
#2320=ORIENTED_EDGE('',*,*,#380,.T.);
#2330=EDGE_LOOP('',(#2320,#2310,#2250,#2240));
#2340=FACE_OUTER_BOUND('',#2330,.T.);
#2350=ADVANCED_FACE('',(#2340),#2180,.T.);
#2360=CARTESIAN_POINT('',(11.5,5.,0.));
#2370=DIRECTION('',(-0.,1.,0.));
#2380=DIRECTION('',(1.,0.,0.));
#2390=AXIS2_PLACEMENT_3D('',#2360,#2370,#2380);
#2400=PLANE('',#2390);
#2410=ORIENTED_EDGE('',*,*,#2300,.F.);
#2420=ORIENTED_EDGE('',*,*,#1500,.F.);
#2430=CARTESIAN_POINT('',(11.5,5.,0.));
#2440=DIRECTION('',(0.,0.,1.));
#2450=VECTOR('',#2440,1.);
#2460=LINE('',#2430,#2450);
#2470=EDGE_CURVE('',#450,#1410,#2460,.T.);
#2480=ORIENTED_EDGE('',*,*,#2470,.T.);
#2490=ORIENTED_EDGE('',*,*,#460,.T.);
#2500=EDGE_LOOP('',(#2490,#2480,#2420,#2410));
#2510=FACE_OUTER_BOUND('',#2500,.T.);
#2520=ADVANCED_FACE('',(#2510),#2400,.T.);
#2530=CARTESIAN_POINT('',(11.5,6.4,0.));
#2540=DIRECTION('',(1.,0.,0.));
#2550=DIRECTION('',(0.,-1.,0.));
#2560=AXIS2_PLACEMENT_3D('',#2530,#2540,#2550);
#2570=PLANE('',#2560);
#2580=ORIENTED_EDGE('',*,*,#2470,.F.);
#2590=ORIENTED_EDGE('',*,*,#1420,.F.);
#2600=CARTESIAN_POINT('',(11.5,6.5,0.));
#2610=DIRECTION('',(0.,0.,1.));
#2620=VECTOR('',#2610,1.);
#2630=LINE('',#2600,#2620);
#2640=EDGE_CURVE('',#530,#1330,#2630,.T.);
#2650=ORIENTED_EDGE('',*,*,#2640,.T.);
#2660=ORIENTED_EDGE('',*,*,#540,.T.);
#2670=EDGE_LOOP('',(#2660,#2650,#2590,#2580));
#2680=FACE_OUTER_BOUND('',#2670,.T.);
#2690=ADVANCED_FACE('',(#2680),#2570,.T.);
#2700=CARTESIAN_POINT('',(3.5,6.5,0.));
#2710=DIRECTION('',(-3.33066907387547E-16,1.,0.));
#2720=DIRECTION('',(1.,3.33066907387547E-16,0.));
#2730=AXIS2_PLACEMENT_3D('',#2700,#2710,#2720);
#2740=PLANE('',#2730);
#2750=CARTESIAN_POINT('',(7.5,6.5,-44.));
#2760=DIRECTION('',(-3.33066907387547E-16,1.,0.));
#2770=DIRECTION('',(1.,3.33066907387547E-16,0.));
#2780=AXIS2_PLACEMENT_3D('',#2750,#2760,#2770);
#2790=CIRCLE('',#2780,3.);
#2800=CARTESIAN_POINT('',(10.5,6.5,-44.));
#2810=VERTEX_POINT('',#2800);
#2820=CARTESIAN_POINT('',(4.5,6.5,-44.));
#2830=VERTEX_POINT('',#2820);
#2840=EDGE_CURVE('',#2810,#2830,#2790,.T.);
#2850=ORIENTED_EDGE('',*,*,#2840,.F.);
#2860=EDGE_CURVE('',#2830,#2810,#2790,.T.);
#2870=ORIENTED_EDGE('',*,*,#2860,.F.);
#2880=EDGE_LOOP('',(#2870,#2850));
#2890=FACE_BOUND('',#2880,.T.);
#2900=ORIENTED_EDGE('',*,*,#2640,.F.);
#2910=ORIENTED_EDGE('',*,*,#1340,.F.);
#2920=CARTESIAN_POINT('',(3.5,6.5,0.));
#2930=DIRECTION('',(0.,0.,1.));
#2940=VECTOR('',#2930,1.);
#2950=LINE('',#2920,#2940);
#2960=EDGE_CURVE('',#610,#1250,#2950,.T.);
#2970=ORIENTED_EDGE('',*,*,#2960,.T.);
#2980=ORIENTED_EDGE('',*,*,#620,.T.);
#2990=EDGE_LOOP('',(#2980,#2970,#2910,#2900));
#3000=FACE_OUTER_BOUND('',#2990,.T.);
#3010=ADVANCED_FACE('',(#2890,#3000),#2740,.T.);
#3020=CARTESIAN_POINT('',(3.5,4.9,0.));
#3030=DIRECTION('',(-1.,0.,0.));
#3040=DIRECTION('',(0.,1.,0.));
#3050=AXIS2_PLACEMENT_3D('',#3020,#3030,#3040);
#3060=PLANE('',#3050);
#3070=ORIENTED_EDGE('',*,*,#2960,.F.);
#3080=ORIENTED_EDGE('',*,*,#1260,.F.);
#3090=CARTESIAN_POINT('',(3.5,5.,0.));
#3100=DIRECTION('',(0.,0.,1.));
#3110=VECTOR('',#3100,1.);
#3120=LINE('',#3090,#3110);
#3130=EDGE_CURVE('',#690,#1170,#3120,.T.);
#3140=ORIENTED_EDGE('',*,*,#3130,.T.);
#3150=ORIENTED_EDGE('',*,*,#700,.T.);
#3160=EDGE_LOOP('',(#3150,#3140,#3080,#3070));
#3170=FACE_OUTER_BOUND('',#3160,.T.);
#3180=ADVANCED_FACE('',(#3170),#3060,.T.);
#3190=CARTESIAN_POINT('',(0.,5.,0.));
#3200=DIRECTION('',(-0.,1.,0.));
#3210=DIRECTION('',(1.,0.,0.));
#3220=AXIS2_PLACEMENT_3D('',#3190,#3200,#3210);
#3230=PLANE('',#3220);
#3240=ORIENTED_EDGE('',*,*,#3130,.F.);
#3250=ORIENTED_EDGE('',*,*,#1180,.T.);
#3260=CARTESIAN_POINT('',(0.,5.,0.));
#3270=DIRECTION('',(0.,0.,1.));
#3280=VECTOR('',#3270,1.);
#3290=LINE('',#3260,#3280);
#3300=EDGE_CURVE('',#770,#1090,#3290,.T.);
#3310=ORIENTED_EDGE('',*,*,#3300,.T.);
#3320=ORIENTED_EDGE('',*,*,#780,.F.);
#3330=EDGE_LOOP('',(#3320,#3310,#3250,#3240));
#3340=FACE_OUTER_BOUND('',#3330,.T.);
#3350=ADVANCED_FACE('',(#3340),#3230,.T.);
#3360=CARTESIAN_POINT('',(0.,0.,0.));
#3370=DIRECTION('',(-1.,0.,0.));
#3380=DIRECTION('',(0.,1.,0.));
#3390=AXIS2_PLACEMENT_3D('',#3360,#3370,#3380);
#3400=PLANE('',#3390);
#3410=ORIENTED_EDGE('',*,*,#3300,.F.);
#3420=ORIENTED_EDGE('',*,*,#1100,.T.);
#3430=CARTESIAN_POINT('',(0.,1.5,-7.49999999999999));
#3440=DIRECTION('',(0.,0.,1.));
#3450=VECTOR('',#3440,1.);
#3460=LINE('',#3430,#3450);
#3470=EDGE_CURVE('',#110,#990,#3460,.T.);
#3480=ORIENTED_EDGE('',*,*,#3470,.T.);
#3490=ORIENTED_EDGE('',*,*,#840,.F.);
#3500=EDGE_LOOP('',(#3490,#3480,#3420,#3410));
#3510=FACE_OUTER_BOUND('',#3500,.T.);
#3520=ADVANCED_FACE('',(#3510),#3400,.T.);
#3530=CARTESIAN_POINT('',(14.25,0.75,-7.49999999999999));
#3540=DIRECTION('',(0.707106781186548,-0.707106781186548,0.));
#3550=DIRECTION('',(0.707106781186548,0.707106781186548,0.));
#3560=AXIS2_PLACEMENT_3D('',#3530,#3540,#3550);
#3570=PLANE('',#3560);
#3580=ORIENTED_EDGE('',*,*,#1660,.T.);
#3590=ORIENTED_EDGE('',*,*,#2230,.T.);
#3600=ORIENTED_EDGE('',*,*,#300,.F.);
#3610=ORIENTED_EDGE('',*,*,#2020,.F.);
#3620=EDGE_LOOP('',(#3610,#3600,#3590,#3580));
#3630=FACE_OUTER_BOUND('',#3620,.T.);
#3640=ADVANCED_FACE('',(#3630),#3570,.T.);
#3650=CARTESIAN_POINT('',(0.75,0.75,-7.49999999999999));
#3660=DIRECTION('',(0.707106781186548,0.707106781186548,-0.));
#3670=DIRECTION('',(-0.707106781186548,0.707106781186548,0.));
#3680=AXIS2_PLACEMENT_3D('',#3650,#3660,#3670);
#3690=PLANE('',#3680);
#3700=ORIENTED_EDGE('',*,*,#140,.T.);
#3710=ORIENTED_EDGE('',*,*,#3470,.F.);
#3720=ORIENTED_EDGE('',*,*,#1020,.F.);
#3730=ORIENTED_EDGE('',*,*,#2090,.T.);
#3740=EDGE_LOOP('',(#3730,#3720,#3710,#3700));
#3750=FACE_OUTER_BOUND('',#3740,.T.);
#3760=ADVANCED_FACE('',(#3750),#3690,.F.);
#3770=CARTESIAN_POINT('',(7.5,6.5,-44.));
#3780=DIRECTION('',(-3.33066907387547E-16,1.,0.));
#3790=DIRECTION('',(1.,3.33066907387547E-16,0.));
#3800=AXIS2_PLACEMENT_3D('',#3770,#3780,#3790);
#3810=CYLINDRICAL_SURFACE('',#3800,2.5);
#3820=CARTESIAN_POINT('',(5.,6.5,-44.));
#3830=DIRECTION('',(-3.33066907387547E-16,1.,0.));
#3840=VECTOR('',#3830,1.);
#3850=LINE('',#3820,#3840);
#3860=CARTESIAN_POINT('',(5.,0.288675,-44.));
#3870=VERTEX_POINT('',#3860);
#3880=CARTESIAN_POINT('',(5.,6.21132486540518,-44.));
#3890=VERTEX_POINT('',#3880);
#3900=EDGE_CURVE('',#3870,#3890,#3850,.T.);
#3910=ORIENTED_EDGE('',*,*,#3900,.T.);
#3920=CARTESIAN_POINT('',(7.5,0.288675,-44.));
#3930=DIRECTION('',(-3.33066907387547E-16,1.,0.));
#3940=DIRECTION('',(1.,3.33066907387547E-16,0.));
#3950=AXIS2_PLACEMENT_3D('',#3920,#3930,#3940);
#3960=CIRCLE('',#3950,2.5);
#3970=CARTESIAN_POINT('',(10.,0.288675,-44.));
#3980=VERTEX_POINT('',#3970);
#3990=EDGE_CURVE('',#3870,#3980,#3960,.T.);
#4000=ORIENTED_EDGE('',*,*,#3990,.F.);
#4010=CARTESIAN_POINT('',(10.,6.5,-44.));
#4020=DIRECTION('',(-3.33066907387547E-16,1.,0.));
#4030=VECTOR('',#4020,1.);
#4040=LINE('',#4010,#4030);
#4050=CARTESIAN_POINT('',(10.,6.21132486540518,-44.));
#4060=VERTEX_POINT('',#4050);
#4070=EDGE_CURVE('',#3980,#4060,#4040,.T.);
#4080=ORIENTED_EDGE('',*,*,#4070,.F.);
#4090=CARTESIAN_POINT('',(7.5,6.21132486540519,-44.));
#4100=DIRECTION('',(-3.33066907387547E-16,1.,0.));
#4110=DIRECTION('',(1.,3.33066907387547E-16,0.));
#4120=AXIS2_PLACEMENT_3D('',#4090,#4100,#4110);
#4130=CIRCLE('',#4120,2.5);
#4140=EDGE_CURVE('',#3890,#4060,#4130,.T.);
#4150=ORIENTED_EDGE('',*,*,#4140,.T.);
#4160=EDGE_LOOP('',(#4150,#4080,#4000,#3910));
#4170=FACE_OUTER_BOUND('',#4160,.T.);
#4180=ADVANCED_FACE('M6x1_2864439',(#4170),#3810,.F.);
#4190=COLOUR_RGB('',1.,0.,0.);
#4200=FILL_AREA_STYLE_COLOUR('',#4190);
#4210=FILL_AREA_STYLE('',(#4200));
#4220=SURFACE_STYLE_FILL_AREA(#4210);
#4230=SURFACE_SIDE_STYLE('',(#4220));
#4240=SURFACE_STYLE_USAGE(.BOTH.,#4230);
#4250=PRESENTATION_STYLE_ASSIGNMENT((#4240));
#4260=CARTESIAN_POINT('',(7.5,6.21132486540519,-44.));
#4270=DIRECTION('',(0.,1.,0.));
#4280=DIRECTION('',(1.,0.,0.));
#4290=AXIS2_PLACEMENT_3D('',#4260,#4270,#4280);
#4300=CONICAL_SURFACE('',#4290,2.5,1.0471975511966);
#4310=CARTESIAN_POINT('',(10.,6.21132486540519,-44.));
#4320=DIRECTION('',(0.866025403784439,0.5,0.));
#4330=VECTOR('',#4320,2.88675134594813);
#4340=LINE('',#4310,#4330);
#4350=EDGE_CURVE('',#4060,#2810,#4340,.T.);
#4360=ORIENTED_EDGE('',*,*,#4350,.F.);
#4370=ORIENTED_EDGE('',*,*,#2860,.T.);
#4380=CARTESIAN_POINT('',(5.,6.21132486540519,-44.));
#4390=DIRECTION('',(-0.866025403784439,0.5,0.));
#4400=VECTOR('',#4390,2.88675134594813);
#4410=LINE('',#4380,#4400);
#4420=EDGE_CURVE('',#3890,#2830,#4410,.T.);
#4430=ORIENTED_EDGE('',*,*,#4420,.T.);
#4440=ORIENTED_EDGE('',*,*,#4140,.F.);
#4450=EDGE_LOOP('',(#4440,#4430,#4370,#4360));
#4460=FACE_OUTER_BOUND('',#4450,.T.);
#4470=ADVANCED_FACE('',(#4460),#4300,.F.);
#4480=CARTESIAN_POINT('',(7.5,0.288675,-44.));
#4490=DIRECTION('',(0.,-1.,0.));
#4500=DIRECTION('',(-1.,0.,0.));
#4510=AXIS2_PLACEMENT_3D('',#4480,#4490,#4500);
#4520=CONICAL_SURFACE('',#4510,2.5,1.0471975511966);
#4530=CARTESIAN_POINT('',(5.,0.288675,-44.));
#4540=DIRECTION('',(-0.866025403784438,-0.500000000000001,0.));
#4550=VECTOR('',#4540,2.88675134594813);
#4560=LINE('',#4530,#4550);
#4570=EDGE_CURVE('',#3870,#1900,#4560,.T.);
#4580=ORIENTED_EDGE('',*,*,#4570,.F.);
#4590=ORIENTED_EDGE('',*,*,#1930,.F.);
#4600=CARTESIAN_POINT('',(10.,0.288675,-44.));
#4610=DIRECTION('',(0.866025403784438,-0.5,0.));
#4620=VECTOR('',#4610,2.88675134594813);
#4630=LINE('',#4600,#4620);
#4640=EDGE_CURVE('',#3980,#1880,#4630,.T.);
#4650=ORIENTED_EDGE('',*,*,#4640,.T.);
#4660=ORIENTED_EDGE('',*,*,#3990,.T.);
#4670=EDGE_LOOP('',(#4660,#4650,#4590,#4580));
#4680=FACE_OUTER_BOUND('',#4670,.T.);
#4690=ADVANCED_FACE('',(#4680),#4520,.F.);
#4700=CARTESIAN_POINT('',(7.5,6.5,-44.));
#4710=DIRECTION('',(-3.33066907387547E-16,1.,0.));
#4720=DIRECTION('',(1.,3.33066907387547E-16,0.));
#4730=AXIS2_PLACEMENT_3D('',#4700,#4710,#4720);
#4740=CYLINDRICAL_SURFACE('',#4730,2.5);
#4750=EDGE_CURVE('',#3980,#3870,#3960,.T.);
#4760=ORIENTED_EDGE('',*,*,#4750,.F.);
#4770=ORIENTED_EDGE('',*,*,#3900,.F.);
#4780=EDGE_CURVE('',#4060,#3890,#4130,.T.);
#4790=ORIENTED_EDGE('',*,*,#4780,.T.);
#4800=ORIENTED_EDGE('',*,*,#4070,.T.);
#4810=EDGE_LOOP('',(#4800,#4790,#4770,#4760));
#4820=FACE_OUTER_BOUND('',#4810,.T.);
#4830=ADVANCED_FACE('',(#4820),#4740,.F.);
#4840=COLOUR_RGB('',1.,0.,0.);
#4850=FILL_AREA_STYLE_COLOUR('',#4840);
#4860=FILL_AREA_STYLE('',(#4850));
#4870=SURFACE_STYLE_FILL_AREA(#4860);
#4880=SURFACE_SIDE_STYLE('',(#4870));
#4890=SURFACE_STYLE_USAGE(.BOTH.,#4880);
#4900=PRESENTATION_STYLE_ASSIGNMENT((#4890));
#4910=CARTESIAN_POINT('',(7.5,6.21132486540519,-44.));
#4920=DIRECTION('',(0.,1.,0.));
#4930=DIRECTION('',(1.,0.,0.));
#4940=AXIS2_PLACEMENT_3D('',#4910,#4920,#4930);
#4950=CONICAL_SURFACE('',#4940,2.5,1.0471975511966);
#4960=ORIENTED_EDGE('',*,*,#4780,.F.);
#4970=ORIENTED_EDGE('',*,*,#4420,.F.);
#4980=ORIENTED_EDGE('',*,*,#2840,.T.);
#4990=ORIENTED_EDGE('',*,*,#4350,.T.);
#5000=EDGE_LOOP('',(#4990,#4980,#4970,#4960));
#5010=FACE_OUTER_BOUND('',#5000,.T.);
#5020=ADVANCED_FACE('',(#5010),#4950,.F.);
#5030=CARTESIAN_POINT('',(7.5,0.288675,-44.));
#5040=DIRECTION('',(0.,-1.,0.));
#5050=DIRECTION('',(-1.,0.,0.));
#5060=AXIS2_PLACEMENT_3D('',#5030,#5040,#5050);
#5070=CONICAL_SURFACE('',#5060,2.5,1.0471975511966);
#5080=ORIENTED_EDGE('',*,*,#4750,.T.);
#5090=ORIENTED_EDGE('',*,*,#4640,.F.);
#5100=ORIENTED_EDGE('',*,*,#1910,.F.);
#5110=ORIENTED_EDGE('',*,*,#4570,.T.);
#5120=EDGE_LOOP('',(#5110,#5100,#5090,#5080));
#5130=FACE_OUTER_BOUND('',#5120,.T.);
#5140=ADVANCED_FACE('',(#5130),#5070,.F.);
#5150=CLOSED_SHELL('',(#2130,#2350,#2520,#2690,#3010,#3180,#3350,#3520,
#3640,#3760,#4180,#4470,#4690,#4830,#5020,#5140,#1760,#880));
#5160=MANIFOLD_SOLID_BREP('',#5150);
#5170=CARTESIAN_POINT('',(0.,0.,0.));
#5180=DIRECTION('',(0.,0.,1.));
#5190=DIRECTION('',(1.,0.,0.));
#5200=AXIS2_PLACEMENT_3D('',#5170,#5180,#5190);
#5210=APPLICATION_CONTEXT(' ');
#5220=APPLICATION_PROTOCOL_DEFINITION(' ','automotive_design',1998,#5210
);
#5230=PRODUCT_CONTEXT('',#5210,'mechanical');
#5240=PRODUCT_DEFINITION_CONTEXT('part definition',#5210,'design');
#5250=PRODUCT('Klemmschiene-MMS-33_22mm_33.0160_PX176076',
'Klemmschiene-MMS-33_22mm_33.0160_PX176076','',(#5230));
#5260=PRODUCT_RELATED_PRODUCT_CATEGORY('part',' ',(#5250));
#5270=PRODUCT_DEFINITION_FORMATION_WITH_SPECIFIED_SOURCE('','',#5250,
.BOUGHT.);
#5280=PRODUCT_DEFINITION('',' ',#5270,#5240);
#5290=PRODUCT_DEFINITION_SHAPE('','',#5280);
#5300=DIMENSIONAL_EXPONENTS(1.,0.,0.,0.,0.,0.,0.);
#5310=DIMENSIONAL_EXPONENTS(0.,0.,0.,0.,0.,0.,0.);
#5320=DIMENSIONAL_EXPONENTS(0.,0.,0.,0.,0.,0.,0.);
#5330=(LENGTH_UNIT() NAMED_UNIT(*) SI_UNIT(.MILLI.,.METRE.));
#5340=(NAMED_UNIT(*) PLANE_ANGLE_UNIT() SI_UNIT($,.RADIAN.));
#5350=(NAMED_UNIT(*) SI_UNIT($,.STERADIAN.) SOLID_ANGLE_UNIT());
#5360=(GEOMETRIC_REPRESENTATION_CONTEXT(3) 
GLOBAL_UNCERTAINTY_ASSIGNED_CONTEXT((#5370)) 
GLOBAL_UNIT_ASSIGNED_CONTEXT((#5330,#5340,#5350)) REPRESENTATION_CONTEXT
('',''));
#5370=UNCERTAINTY_MEASURE_WITH_UNIT(LENGTH_MEASURE(1.E-6),#5330,
'distance_accuracy_value','maximum gap value');
#5380=ADVANCED_BREP_SHAPE_REPRESENTATION('',(#5200,#5160),#5360);
#5390=SHAPE_DEFINITION_REPRESENTATION(#5290,#5380);
#5400=COLOUR_RGB('',0.690196096897125,0.886274576187134,1.);
#5410=FILL_AREA_STYLE_COLOUR('',#5400);
#5420=FILL_AREA_STYLE('',(#5410));
#5430=SURFACE_STYLE_FILL_AREA(#5420);
#5440=SURFACE_SIDE_STYLE('',(#5430));
#5450=SURFACE_STYLE_USAGE(.BOTH.,#5440);
#5460=PRESENTATION_STYLE_ASSIGNMENT((#5450));
#5470=STYLED_ITEM('',(#5460),#5160);
#5480=OVER_RIDING_STYLED_ITEM('',(#4250),#4180,#5470);
#5490=OVER_RIDING_STYLED_ITEM('',(#4900),#4830,#5470);
#5500=DRAUGHTING_MODEL('',(#5470,#5480,#5490),#5360);
#5510=CARTESIAN_POINT('',(0.,0.,55.));
#5520=DIRECTION('',(0.,0.,1.));
#5530=DIRECTION('',(1.,0.,0.));
#5540=AXIS2_PLACEMENT_3D('',#5510,#5520,#5530);
#5550=ITEM_DEFINED_TRANSFORMATION(
'Klemmschiene-MMS-33_22mm_33.0160_PX176076','',#5200,#5540);
#5560=APPLICATION_CONTEXT(' ');
#5570=APPLICATION_PROTOCOL_DEFINITION(' ','automotive_design',1998,#5560
);
#5580=PRODUCT_CONTEXT('',#5560,'mechanical');
#5590=PRODUCT_DEFINITION_CONTEXT('part definition',#5560,'design');
#5600=PRODUCT('Klemmschiene-MMS-33_22mm_33.0160_PX176076',
'Klemmschiene-MMS-33_22mm_33.0160_PX176076','',(#5580));
#5610=PRODUCT_RELATED_PRODUCT_CATEGORY('part',' ',(#5600));
#5620=PRODUCT_DEFINITION_FORMATION_WITH_SPECIFIED_SOURCE('','',#5600,
.BOUGHT.);
#5630=PRODUCT_DEFINITION('',' ',#5620,#5590);
#5640=PRODUCT_DEFINITION_SHAPE('','',#5630);
#5650=DIMENSIONAL_EXPONENTS(1.,0.,0.,0.,0.,0.,0.);
#5660=DIMENSIONAL_EXPONENTS(0.,0.,0.,0.,0.,0.,0.);
#5670=DIMENSIONAL_EXPONENTS(0.,0.,0.,0.,0.,0.,0.);
#5680=(LENGTH_UNIT() NAMED_UNIT(*) SI_UNIT(.MILLI.,.METRE.));
#5690=(NAMED_UNIT(*) PLANE_ANGLE_UNIT() SI_UNIT($,.RADIAN.));
#5700=(NAMED_UNIT(*) SI_UNIT($,.STERADIAN.) SOLID_ANGLE_UNIT());
#5710=(GEOMETRIC_REPRESENTATION_CONTEXT(3) 
GLOBAL_UNCERTAINTY_ASSIGNED_CONTEXT((#5720)) 
GLOBAL_UNIT_ASSIGNED_CONTEXT((#5680,#5690,#5700)) REPRESENTATION_CONTEXT
('',''));
#5720=UNCERTAINTY_MEASURE_WITH_UNIT(LENGTH_MEASURE(1.E-6),#5680,
'distance_accuracy_value','maximum gap value');
#5730=SHAPE_REPRESENTATION('',(#5200,#5540),#5710);
#5740=SHAPE_DEFINITION_REPRESENTATION(#5640,#5730);
#5750=(REPRESENTATION_RELATIONSHIP('','',#5380,#5730) 
REPRESENTATION_RELATIONSHIP_WITH_TRANSFORMATION(#5550) 
SHAPE_REPRESENTATION_RELATIONSHIP());
#5760=NEXT_ASSEMBLY_USAGE_OCCURRENCE('1','',
'Klemmschiene-MMS-33_22mm_33.0160_PX176076',#5630,#5280,'');
#5770=PRODUCT_DEFINITION_SHAPE('','',#5760);
#5780=CONTEXT_DEPENDENT_SHAPE_REPRESENTATION(#5750,#5770);
ENDSEC;
END-ISO-10303-21;
