ISO-10303-21;
HEADER;
FILE_DESCRIPTION(('Creo Elements/Direct Modeling STEP Export'),'2;1');
FILE_NAME(
'//KR-CAD2/PhoenixTemp/karl.letzgus/Konvertierung/33.0246.3_Flansch-MMS-
33_30x30x10-M10.stp','2022-03-18T13:58:01',(''),(''),
'PTC Creo Elements/Direct Modeling STEP processor for AP214 (Solid Model
)',
'PTC Creo Elements/Direct Modeling 19.0C  15-Aug-2015 (C) Parametric Tec
hnology GmbH','');
FILE_SCHEMA(('AUTOMOTIVE_DESIGN { 1 0 10303 214 1 1 1 1 }'));
ENDSEC;
DATA;
#10=CARTESIAN_POINT('',(-11.5,11.5,-0.0300000000000002));
#20=DIRECTION('',(0.,0.,1.));
#30=DIRECTION('',(1.,0.,0.));
#40=AXIS2_PLACEMENT_3D('',#10,#20,#30);
#50=CYLINDRICAL_SURFACE('',#40,2.75);
#60=CARTESIAN_POINT('',(-8.74999999999999,11.5,-0.0300000000000002));
#70=DIRECTION('',(0.,0.,1.));
#80=VECTOR('',#70,1.);
#90=LINE('',#60,#80);
#100=CARTESIAN_POINT('',(-8.74999999999999,11.5,0.));
#110=VERTEX_POINT('',#100);
#120=CARTESIAN_POINT('',(-8.74999999999999,11.5,3.));
#130=VERTEX_POINT('',#120);
#140=EDGE_CURVE('',#110,#130,#90,.T.);
#150=ORIENTED_EDGE('',*,*,#140,.F.);
#160=CARTESIAN_POINT('',(-11.5,11.5,3.));
#170=DIRECTION('',(0.,0.,-1.));
#180=DIRECTION('',(1.,0.,0.));
#190=AXIS2_PLACEMENT_3D('',#160,#170,#180);
#200=CIRCLE('',#190,2.75);
#210=CARTESIAN_POINT('',(-14.25,11.5,3.));
#220=VERTEX_POINT('',#210);
#230=EDGE_CURVE('',#130,#220,#200,.T.);
#240=ORIENTED_EDGE('',*,*,#230,.F.);
#250=CARTESIAN_POINT('',(-14.25,11.5,-0.0300000000000002));
#260=DIRECTION('',(0.,0.,1.));
#270=VECTOR('',#260,1.);
#280=LINE('',#250,#270);
#290=CARTESIAN_POINT('',(-14.25,11.5,0.));
#300=VERTEX_POINT('',#290);
#310=EDGE_CURVE('',#300,#220,#280,.T.);
#320=ORIENTED_EDGE('',*,*,#310,.T.);
#330=CARTESIAN_POINT('',(-11.5,11.5,0.));
#340=DIRECTION('',(0.,0.,1.));
#350=DIRECTION('',(1.,0.,0.));
#360=AXIS2_PLACEMENT_3D('',#330,#340,#350);
#370=CIRCLE('',#360,2.75);
#380=EDGE_CURVE('',#300,#110,#370,.T.);
#390=ORIENTED_EDGE('',*,*,#380,.F.);
#400=EDGE_LOOP('',(#390,#320,#240,#150));
#410=FACE_OUTER_BOUND('',#400,.T.);
#420=ADVANCED_FACE('',(#410),#50,.F.);
#430=CARTESIAN_POINT('',(11.5,-11.5,-0.0300000000000002));
#440=DIRECTION('',(0.,0.,1.));
#450=DIRECTION('',(1.,0.,0.));
#460=AXIS2_PLACEMENT_3D('',#430,#440,#450);
#470=CYLINDRICAL_SURFACE('',#460,2.75);
#480=CARTESIAN_POINT('',(8.75,-11.5,-0.0300000000000002));
#490=DIRECTION('',(0.,0.,1.));
#500=VECTOR('',#490,1.);
#510=LINE('',#480,#500);
#520=CARTESIAN_POINT('',(8.75,-11.5,0.));
#530=VERTEX_POINT('',#520);
#540=CARTESIAN_POINT('',(8.75,-11.5,3.));
#550=VERTEX_POINT('',#540);
#560=EDGE_CURVE('',#530,#550,#510,.T.);
#570=ORIENTED_EDGE('',*,*,#560,.F.);
#580=CARTESIAN_POINT('',(11.5,-11.5,3.));
#590=DIRECTION('',(0.,0.,-1.));
#600=DIRECTION('',(1.,0.,0.));
#610=AXIS2_PLACEMENT_3D('',#580,#590,#600);
#620=CIRCLE('',#610,2.75);
#630=CARTESIAN_POINT('',(14.25,-11.5,3.));
#640=VERTEX_POINT('',#630);
#650=EDGE_CURVE('',#550,#640,#620,.T.);
#660=ORIENTED_EDGE('',*,*,#650,.F.);
#670=CARTESIAN_POINT('',(14.25,-11.5,-0.0300000000000002));
#680=DIRECTION('',(0.,0.,1.));
#690=VECTOR('',#680,1.);
#700=LINE('',#670,#690);
#710=CARTESIAN_POINT('',(14.25,-11.5,0.));
#720=VERTEX_POINT('',#710);
#730=EDGE_CURVE('',#720,#640,#700,.T.);
#740=ORIENTED_EDGE('',*,*,#730,.T.);
#750=CARTESIAN_POINT('',(11.5,-11.5,0.));
#760=DIRECTION('',(0.,0.,1.));
#770=DIRECTION('',(1.,0.,0.));
#780=AXIS2_PLACEMENT_3D('',#750,#760,#770);
#790=CIRCLE('',#780,2.75);
#800=EDGE_CURVE('',#720,#530,#790,.T.);
#810=ORIENTED_EDGE('',*,*,#800,.F.);
#820=EDGE_LOOP('',(#810,#740,#660,#570));
#830=FACE_OUTER_BOUND('',#820,.T.);
#840=ADVANCED_FACE('',(#830),#470,.F.);
#850=CARTESIAN_POINT('',(-15.,-14.28,3.03));
#860=DIRECTION('',(1.,0.,0.));
#870=DIRECTION('',(0.,-1.,0.));
#880=AXIS2_PLACEMENT_3D('',#850,#860,#870);
#890=PLANE('',#880);
#900=CARTESIAN_POINT('',(-15.,-15.,0.));
#910=DIRECTION('',(0.,0.,1.));
#920=VECTOR('',#910,1.);
#930=LINE('',#900,#920);
#940=CARTESIAN_POINT('',(-15.,-15.,0.));
#950=VERTEX_POINT('',#940);
#960=CARTESIAN_POINT('',(-15.,-15.,3.));
#970=VERTEX_POINT('',#960);
#980=EDGE_CURVE('',#950,#970,#930,.T.);
#990=ORIENTED_EDGE('',*,*,#980,.T.);
#1000=CARTESIAN_POINT('',(-15.,0.,0.));
#1010=DIRECTION('',(0.,1.,0.));
#1020=VECTOR('',#1010,1.);
#1030=LINE('',#1000,#1020);
#1040=CARTESIAN_POINT('',(-15.,15.,0.));
#1050=VERTEX_POINT('',#1040);
#1060=EDGE_CURVE('',#950,#1050,#1030,.T.);
#1070=ORIENTED_EDGE('',*,*,#1060,.F.);
#1080=CARTESIAN_POINT('',(-15.,15.,0.));
#1090=DIRECTION('',(0.,0.,1.));
#1100=VECTOR('',#1090,1.);
#1110=LINE('',#1080,#1100);
#1120=CARTESIAN_POINT('',(-15.,15.,3.));
#1130=VERTEX_POINT('',#1120);
#1140=EDGE_CURVE('',#1050,#1130,#1110,.T.);
#1150=ORIENTED_EDGE('',*,*,#1140,.F.);
#1160=CARTESIAN_POINT('',(-15.,0.,3.));
#1170=DIRECTION('',(0.,-1.,0.));
#1180=VECTOR('',#1170,1.);
#1190=LINE('',#1160,#1180);
#1200=EDGE_CURVE('',#1130,#970,#1190,.T.);
#1210=ORIENTED_EDGE('',*,*,#1200,.F.);
#1220=EDGE_LOOP('',(#1210,#1150,#1070,#990));
#1230=FACE_OUTER_BOUND('',#1220,.T.);
#1240=ADVANCED_FACE('',(#1230),#890,.F.);
#1250=CARTESIAN_POINT('',(15.,-14.28,-0.03));
#1260=DIRECTION('',(-1.,0.,0.));
#1270=DIRECTION('',(0.,1.,0.));
#1280=AXIS2_PLACEMENT_3D('',#1250,#1260,#1270);
#1290=PLANE('',#1280);
#1300=CARTESIAN_POINT('',(15.,15.,0.));
#1310=DIRECTION('',(0.,0.,1.));
#1320=VECTOR('',#1310,1.);
#1330=LINE('',#1300,#1320);
#1340=CARTESIAN_POINT('',(15.,15.,0.));
#1350=VERTEX_POINT('',#1340);
#1360=CARTESIAN_POINT('',(15.,15.,3.));
#1370=VERTEX_POINT('',#1360);
#1380=EDGE_CURVE('',#1350,#1370,#1330,.T.);
#1390=ORIENTED_EDGE('',*,*,#1380,.T.);
#1400=CARTESIAN_POINT('',(15.,0.,0.));
#1410=DIRECTION('',(0.,-1.,0.));
#1420=VECTOR('',#1410,1.);
#1430=LINE('',#1400,#1420);
#1440=CARTESIAN_POINT('',(15.,-15.,0.));
#1450=VERTEX_POINT('',#1440);
#1460=EDGE_CURVE('',#1350,#1450,#1430,.T.);
#1470=ORIENTED_EDGE('',*,*,#1460,.F.);
#1480=CARTESIAN_POINT('',(15.,-15.,0.));
#1490=DIRECTION('',(0.,0.,1.));
#1500=VECTOR('',#1490,1.);
#1510=LINE('',#1480,#1500);
#1520=CARTESIAN_POINT('',(15.,-15.,3.));
#1530=VERTEX_POINT('',#1520);
#1540=EDGE_CURVE('',#1450,#1530,#1510,.T.);
#1550=ORIENTED_EDGE('',*,*,#1540,.F.);
#1560=CARTESIAN_POINT('',(15.,0.,3.));
#1570=DIRECTION('',(0.,1.,0.));
#1580=VECTOR('',#1570,1.);
#1590=LINE('',#1560,#1580);
#1600=EDGE_CURVE('',#1530,#1370,#1590,.T.);
#1610=ORIENTED_EDGE('',*,*,#1600,.F.);
#1620=EDGE_LOOP('',(#1610,#1550,#1470,#1390));
#1630=FACE_OUTER_BOUND('',#1620,.T.);
#1640=ADVANCED_FACE('',(#1630),#1290,.F.);
#1650=CARTESIAN_POINT('',(-15.3,-15.3,0.));
#1660=DIRECTION('',(0.,0.,1.));
#1670=DIRECTION('',(1.,0.,0.));
#1680=AXIS2_PLACEMENT_3D('',#1650,#1660,#1670);
#1690=PLANE('',#1680);
#1700=EDGE_CURVE('',#530,#720,#790,.T.);
#1710=ORIENTED_EDGE('',*,*,#1700,.T.);
#1720=ORIENTED_EDGE('',*,*,#800,.T.);
#1730=EDGE_LOOP('',(#1720,#1710));
#1740=FACE_BOUND('',#1730,.T.);
#1750=EDGE_CURVE('',#110,#300,#370,.T.);
#1760=ORIENTED_EDGE('',*,*,#1750,.T.);
#1770=ORIENTED_EDGE('',*,*,#380,.T.);
#1780=EDGE_LOOP('',(#1770,#1760));
#1790=FACE_BOUND('',#1780,.T.);
#1800=CARTESIAN_POINT('',(0.,-1.77635683940025E-15,0.));
#1810=DIRECTION('',(0.,0.,1.));
#1820=DIRECTION('',(1.,0.,0.));
#1830=AXIS2_PLACEMENT_3D('',#1800,#1810,#1820);
#1840=CIRCLE('',#1830,5.00000051633782);
#1850=CARTESIAN_POINT('',(5.00000051633782,-1.16403337659343E-15,
-5.55111512312578E-17));
#1860=VERTEX_POINT('',#1850);
#1870=CARTESIAN_POINT('',(-5.00000051633782,-1.77635683940025E-15,
-5.55111512312578E-17));
#1880=VERTEX_POINT('',#1870);
#1890=EDGE_CURVE('',#1860,#1880,#1840,.T.);
#1900=ORIENTED_EDGE('',*,*,#1890,.T.);
#1910=EDGE_CURVE('',#1880,#1860,#1840,.T.);
#1920=ORIENTED_EDGE('',*,*,#1910,.T.);
#1930=EDGE_LOOP('',(#1920,#1900));
#1940=FACE_BOUND('',#1930,.T.);
#1950=CARTESIAN_POINT('',(0.,15.,0.));
#1960=DIRECTION('',(1.,0.,0.));
#1970=VECTOR('',#1960,1.);
#1980=LINE('',#1950,#1970);
#1990=EDGE_CURVE('',#1050,#1350,#1980,.T.);
#2000=ORIENTED_EDGE('',*,*,#1990,.T.);
#2010=ORIENTED_EDGE('',*,*,#1060,.T.);
#2020=CARTESIAN_POINT('',(0.,-15.,0.));
#2030=DIRECTION('',(-1.,0.,0.));
#2040=VECTOR('',#2030,1.);
#2050=LINE('',#2020,#2040);
#2060=EDGE_CURVE('',#1450,#950,#2050,.T.);
#2070=ORIENTED_EDGE('',*,*,#2060,.T.);
#2080=ORIENTED_EDGE('',*,*,#1460,.T.);
#2090=EDGE_LOOP('',(#2080,#2070,#2010,#2000));
#2100=FACE_OUTER_BOUND('',#2090,.T.);
#2110=ADVANCED_FACE('',(#1740,#1790,#1940,#2100),#1690,.F.);
#2120=CARTESIAN_POINT('',(-8.5,-7.42820323027551,10.));
#2130=DIRECTION('',(0.,0.,1.));
#2140=DIRECTION('',(1.,0.,0.));
#2150=AXIS2_PLACEMENT_3D('',#2120,#2130,#2140);
#2160=PLANE('',#2150);
#2170=CARTESIAN_POINT('',(0.,-1.77635683940025E-15,10.));
#2180=DIRECTION('',(0.,0.,1.));
#2190=DIRECTION('',(1.,0.,0.));
#2200=AXIS2_PLACEMENT_3D('',#2170,#2180,#2190);
#2210=CIRCLE('',#2200,5.);
#2220=CARTESIAN_POINT('',(5.,-1.77635683940025E-15,10.));
#2230=VERTEX_POINT('',#2220);
#2240=CARTESIAN_POINT('',(-5.,-1.16403343982657E-15,10.));
#2250=VERTEX_POINT('',#2240);
#2260=EDGE_CURVE('',#2230,#2250,#2210,.T.);
#2270=ORIENTED_EDGE('',*,*,#2260,.F.);
#2280=EDGE_CURVE('',#2250,#2230,#2210,.T.);
#2290=ORIENTED_EDGE('',*,*,#2280,.F.);
#2300=EDGE_LOOP('',(#2290,#2270));
#2310=FACE_BOUND('',#2300,.T.);
#2320=CARTESIAN_POINT('',(2.0306834363428E-31,-1.47667450287796E-15,10.)
);
#2330=DIRECTION('',(0.,0.,-1.));
#2340=DIRECTION('',(-1.,0.,0.));
#2350=AXIS2_PLACEMENT_3D('',#2320,#2330,#2340);
#2360=CIRCLE('',#2350,5.50000000000003);
#2370=CARTESIAN_POINT('',(5.50000000000003,-8.03118763346917E-16,10.));
#2380=VERTEX_POINT('',#2370);
#2390=CARTESIAN_POINT('',(-5.50000000000003,-1.47667450287796E-15,10.));
#2400=VERTEX_POINT('',#2390);
#2410=EDGE_CURVE('',#2380,#2400,#2360,.T.);
#2420=ORIENTED_EDGE('',*,*,#2410,.F.);
#2430=EDGE_CURVE('',#2400,#2380,#2360,.T.);
#2440=ORIENTED_EDGE('',*,*,#2430,.F.);
#2450=EDGE_LOOP('',(#2440,#2420));
#2460=FACE_OUTER_BOUND('',#2450,.T.);
#2470=ADVANCED_FACE('',(#2310,#2460),#2160,.T.);
#2480=CARTESIAN_POINT('',(2.0306834363428E-31,-1.47667450287796E-15,
9.495));
#2490=DIRECTION('',(0.,0.,-1.));
#2500=DIRECTION('',(-1.,0.,0.));
#2510=AXIS2_PLACEMENT_3D('',#2480,#2490,#2500);
#2520=CONICAL_SURFACE('',#2510,6.00500000000003,0.785398163397451);
#2530=CARTESIAN_POINT('',(6.00500000000003,-7.41274099989976E-16,9.495))
;
#2540=DIRECTION('',(0.707106781186549,8.65956056235496E-17,
-0.707106781186546));
#2550=VECTOR('',#2540,8.49235244205046);
#2560=LINE('',#2530,#2550);
#2570=CARTESIAN_POINT('',(6.00000000000003,-7.41886423389549E-16,9.5));
#2580=VERTEX_POINT('',#2570);
#2590=EDGE_CURVE('',#2380,#2580,#2560,.T.);
#2600=ORIENTED_EDGE('',*,*,#2590,.T.);
#2610=ORIENTED_EDGE('',*,*,#2430,.T.);
#2620=CARTESIAN_POINT('',(-6.00500000000003,-1.47667450287796E-15,9.495)
);
#2630=DIRECTION('',(-0.707106781186549,0.,-0.707106781186546));
#2640=VECTOR('',#2630,8.49235244205046);
#2650=LINE('',#2620,#2640);
#2660=CARTESIAN_POINT('',(-6.00000000000003,-1.47667450287796E-15,9.5));
#2670=VERTEX_POINT('',#2660);
#2680=EDGE_CURVE('',#2400,#2670,#2650,.T.);
#2690=ORIENTED_EDGE('',*,*,#2680,.F.);
#2700=CARTESIAN_POINT('',(1.0153417181714E-31,3.79171592002019E-17,9.5))
;
#2710=DIRECTION('',(0.,0.,-1.));
#2720=DIRECTION('',(-1.,0.,0.));
#2730=AXIS2_PLACEMENT_3D('',#2700,#2710,#2720);
#2740=CIRCLE('',#2730,6.00000000000003);
#2750=EDGE_CURVE('',#2670,#2580,#2740,.T.);
#2760=ORIENTED_EDGE('',*,*,#2750,.F.);
#2770=EDGE_LOOP('',(#2760,#2690,#2610,#2600));
#2780=FACE_OUTER_BOUND('',#2770,.T.);
#2790=ADVANCED_FACE('',(#2780),#2520,.T.);
#2800=CARTESIAN_POINT('',(0.,1.55250882127837E-15,9.565));
#2810=DIRECTION('',(0.,0.,-1.));
#2820=DIRECTION('',(-1.,0.,0.));
#2830=AXIS2_PLACEMENT_3D('',#2800,#2810,#2820);
#2840=CYLINDRICAL_SURFACE('',#2830,6.00000000000003);
#2850=CARTESIAN_POINT('',(6.00000000000003,2.28729690076678E-15,9.565));
#2860=DIRECTION('',(0.,0.,-1.));
#2870=VECTOR('',#2860,1.);
#2880=LINE('',#2850,#2870);
#2890=CARTESIAN_POINT('',(6.00000000000003,2.28729690076678E-15,3.));
#2900=VERTEX_POINT('',#2890);
#2910=EDGE_CURVE('',#2580,#2900,#2880,.T.);
#2920=ORIENTED_EDGE('',*,*,#2910,.T.);
#2930=ORIENTED_EDGE('',*,*,#2750,.T.);
#2940=CARTESIAN_POINT('',(-6.00000000000003,1.55250882127837E-15,9.565))
;
#2950=DIRECTION('',(0.,0.,-1.));
#2960=VECTOR('',#2950,1.);
#2970=LINE('',#2940,#2960);
#2980=CARTESIAN_POINT('',(-6.00000000000003,1.55250882127837E-15,3.));
#2990=VERTEX_POINT('',#2980);
#3000=EDGE_CURVE('',#2670,#2990,#2970,.T.);
#3010=ORIENTED_EDGE('',*,*,#3000,.F.);
#3020=CARTESIAN_POINT('',(0.,1.55250882127837E-15,3.));
#3030=DIRECTION('',(0.,0.,-1.));
#3040=DIRECTION('',(-1.,0.,0.));
#3050=AXIS2_PLACEMENT_3D('',#3020,#3030,#3040);
#3060=CIRCLE('',#3050,6.00000000000003);
#3070=EDGE_CURVE('',#2990,#2900,#3060,.T.);
#3080=ORIENTED_EDGE('',*,*,#3070,.F.);
#3090=EDGE_LOOP('',(#3080,#3010,#2930,#2920));
#3100=FACE_OUTER_BOUND('',#3090,.T.);
#3110=ADVANCED_FACE('',(#3100),#2840,.T.);
#3120=CARTESIAN_POINT('',(0.,-1.77635683940025E-15,0.433013000000001));
#3130=DIRECTION('',(0.,0.,-1.));
#3140=DIRECTION('',(-1.,0.,0.));
#3150=AXIS2_PLACEMENT_3D('',#3120,#3130,#3140);
#3160=CONICAL_SURFACE('',#3150,4.25,1.0471975511966);
#3170=CARTESIAN_POINT('',(-4.25,-1.77635683940025E-15,0.433013000000001)
);
#3180=DIRECTION('',(-0.866025403784439,0.,-0.5));
#3190=VECTOR('',#3180,4.90747728811182);
#3200=LINE('',#3170,#3190);
#3210=CARTESIAN_POINT('',(-4.25,-1.77635683940025E-15,0.433013000000001)
);
#3220=VERTEX_POINT('',#3210);
#3230=EDGE_CURVE('',#3220,#1880,#3200,.T.);
#3240=ORIENTED_EDGE('',*,*,#3230,.F.);
#3250=ORIENTED_EDGE('',*,*,#1910,.F.);
#3260=CARTESIAN_POINT('',(4.25,-1.25588194976263E-15,0.433013000000001))
;
#3270=DIRECTION('',(0.866025403784439,1.06057523872491E-16,-0.5));
#3280=VECTOR('',#3270,4.90747728811182);
#3290=LINE('',#3260,#3280);
#3300=CARTESIAN_POINT('',(4.25,-1.25588194976263E-15,0.433013000000001))
;
#3310=VERTEX_POINT('',#3300);
#3320=EDGE_CURVE('',#3310,#1860,#3290,.T.);
#3330=ORIENTED_EDGE('',*,*,#3320,.T.);
#3340=CARTESIAN_POINT('',(0.,-1.77635683940025E-15,0.433013000000001));
#3350=DIRECTION('',(0.,0.,1.));
#3360=DIRECTION('',(1.,0.,0.));
#3370=AXIS2_PLACEMENT_3D('',#3340,#3350,#3360);
#3380=CIRCLE('',#3370,4.25);
#3390=EDGE_CURVE('',#3220,#3310,#3380,.T.);
#3400=ORIENTED_EDGE('',*,*,#3390,.T.);
#3410=EDGE_LOOP('',(#3400,#3330,#3250,#3240));
#3420=FACE_OUTER_BOUND('',#3410,.T.);
#3430=ADVANCED_FACE('',(#3420),#3160,.F.);
#3440=CARTESIAN_POINT('',(-14.28,15.,3.03));
#3450=DIRECTION('',(-0.,-1.,-0.));
#3460=DIRECTION('',(-1.,0.,0.));
#3470=AXIS2_PLACEMENT_3D('',#3440,#3450,#3460);
#3480=PLANE('',#3470);
#3490=CARTESIAN_POINT('',(0.,15.,3.));
#3500=DIRECTION('',(-1.,0.,0.));
#3510=VECTOR('',#3500,1.);
#3520=LINE('',#3490,#3510);
#3530=EDGE_CURVE('',#1370,#1130,#3520,.T.);
#3540=ORIENTED_EDGE('',*,*,#3530,.F.);
#3550=ORIENTED_EDGE('',*,*,#1140,.T.);
#3560=ORIENTED_EDGE('',*,*,#1990,.F.);
#3570=ORIENTED_EDGE('',*,*,#1380,.F.);
#3580=EDGE_LOOP('',(#3570,#3560,#3550,#3540));
#3590=FACE_OUTER_BOUND('',#3580,.T.);
#3600=ADVANCED_FACE('',(#3590),#3480,.F.);
#3610=CARTESIAN_POINT('',(-15.3,-15.3,3.));
#3620=DIRECTION('',(0.,0.,1.));
#3630=DIRECTION('',(1.,0.,0.));
#3640=AXIS2_PLACEMENT_3D('',#3610,#3620,#3630);
#3650=PLANE('',#3640);
#3660=EDGE_CURVE('',#2900,#2990,#3060,.T.);
#3670=ORIENTED_EDGE('',*,*,#3660,.T.);
#3680=ORIENTED_EDGE('',*,*,#3070,.T.);
#3690=EDGE_LOOP('',(#3680,#3670));
#3700=FACE_BOUND('',#3690,.T.);
#3710=ORIENTED_EDGE('',*,*,#230,.T.);
#3720=EDGE_CURVE('',#220,#130,#200,.T.);
#3730=ORIENTED_EDGE('',*,*,#3720,.T.);
#3740=EDGE_LOOP('',(#3730,#3710));
#3750=FACE_BOUND('',#3740,.T.);
#3760=ORIENTED_EDGE('',*,*,#650,.T.);
#3770=EDGE_CURVE('',#640,#550,#620,.T.);
#3780=ORIENTED_EDGE('',*,*,#3770,.T.);
#3790=EDGE_LOOP('',(#3780,#3760));
#3800=FACE_BOUND('',#3790,.T.);
#3810=ORIENTED_EDGE('',*,*,#1600,.T.);
#3820=CARTESIAN_POINT('',(0.,-15.,3.));
#3830=DIRECTION('',(1.,0.,0.));
#3840=VECTOR('',#3830,1.);
#3850=LINE('',#3820,#3840);
#3860=EDGE_CURVE('',#970,#1530,#3850,.T.);
#3870=ORIENTED_EDGE('',*,*,#3860,.T.);
#3880=ORIENTED_EDGE('',*,*,#1200,.T.);
#3890=ORIENTED_EDGE('',*,*,#3530,.T.);
#3900=EDGE_LOOP('',(#3890,#3880,#3870,#3810));
#3910=FACE_OUTER_BOUND('',#3900,.T.);
#3920=ADVANCED_FACE('',(#3700,#3750,#3800,#3910),#3650,.T.);
#3930=CARTESIAN_POINT('',(0.,-1.77635683940025E-15,9.56698729810778));
#3940=DIRECTION('',(0.,0.,1.));
#3950=DIRECTION('',(1.,0.,0.));
#3960=AXIS2_PLACEMENT_3D('',#3930,#3940,#3950);
#3970=CONICAL_SURFACE('',#3960,4.25,1.0471975511966);
#3980=CARTESIAN_POINT('',(4.25,-1.77635683940025E-15,9.56698729810778));
#3990=DIRECTION('',(0.866025403784439,0.,0.5));
#4000=VECTOR('',#3990,4.90747728811182);
#4010=LINE('',#3980,#4000);
#4020=CARTESIAN_POINT('',(4.25,-1.77635683940025E-15,9.56698729810778));
#4030=VERTEX_POINT('',#4020);
#4040=EDGE_CURVE('',#4030,#2230,#4010,.T.);
#4050=ORIENTED_EDGE('',*,*,#4040,.F.);
#4060=ORIENTED_EDGE('',*,*,#2280,.T.);
#4070=CARTESIAN_POINT('',(-4.25,-1.25588194976263E-15,9.56698729810778))
;
#4080=DIRECTION('',(-0.866025403784439,1.06057523872491E-16,0.5));
#4090=VECTOR('',#4080,4.90747728811182);
#4100=LINE('',#4070,#4090);
#4110=CARTESIAN_POINT('',(-4.25,-1.25588194976263E-15,9.56698729810778))
;
#4120=VERTEX_POINT('',#4110);
#4130=EDGE_CURVE('',#4120,#2250,#4100,.T.);
#4140=ORIENTED_EDGE('',*,*,#4130,.T.);
#4150=CARTESIAN_POINT('',(0.,-1.77635683940025E-15,9.56698729810778));
#4160=DIRECTION('',(0.,0.,1.));
#4170=DIRECTION('',(1.,0.,0.));
#4180=AXIS2_PLACEMENT_3D('',#4150,#4160,#4170);
#4190=CIRCLE('',#4180,4.25);
#4200=EDGE_CURVE('',#4120,#4030,#4190,.T.);
#4210=ORIENTED_EDGE('',*,*,#4200,.F.);
#4220=EDGE_LOOP('',(#4210,#4140,#4060,#4050));
#4230=FACE_OUTER_BOUND('',#4220,.T.);
#4240=ADVANCED_FACE('',(#4230),#3970,.F.);
#4250=CARTESIAN_POINT('',(0.,-1.77635683940025E-15,10.));
#4260=DIRECTION('',(0.,0.,1.));
#4270=DIRECTION('',(1.,0.,0.));
#4280=AXIS2_PLACEMENT_3D('',#4250,#4260,#4270);
#4290=CYLINDRICAL_SURFACE('',#4280,4.25);
#4300=CARTESIAN_POINT('',(-4.25,-1.25588194976263E-15,10.));
#4310=DIRECTION('',(0.,0.,1.));
#4320=VECTOR('',#4310,1.);
#4330=LINE('',#4300,#4320);
#4340=EDGE_CURVE('',#3220,#4120,#4330,.T.);
#4350=ORIENTED_EDGE('',*,*,#4340,.T.);
#4360=ORIENTED_EDGE('',*,*,#3390,.F.);
#4370=CARTESIAN_POINT('',(4.25,-1.77635683940025E-15,10.));
#4380=DIRECTION('',(0.,0.,1.));
#4390=VECTOR('',#4380,1.);
#4400=LINE('',#4370,#4390);
#4410=EDGE_CURVE('',#3310,#4030,#4400,.T.);
#4420=ORIENTED_EDGE('',*,*,#4410,.F.);
#4430=ORIENTED_EDGE('',*,*,#4200,.T.);
#4440=EDGE_LOOP('',(#4430,#4420,#4360,#4350));
#4450=FACE_OUTER_BOUND('',#4440,.T.);
#4460=ADVANCED_FACE('M10x1.5_4509022',(#4450),#4290,.F.);
#4470=COLOUR_RGB('',1.,0.,0.);
#4480=FILL_AREA_STYLE_COLOUR('',#4470);
#4490=FILL_AREA_STYLE('',(#4480));
#4500=SURFACE_STYLE_FILL_AREA(#4490);
#4510=SURFACE_SIDE_STYLE('',(#4500));
#4520=SURFACE_STYLE_USAGE(.BOTH.,#4510);
#4530=PRESENTATION_STYLE_ASSIGNMENT((#4520));
#4540=CARTESIAN_POINT('',(-14.28,-15.,-0.03));
#4550=DIRECTION('',(-0.,1.,0.));
#4560=DIRECTION('',(1.,0.,0.));
#4570=AXIS2_PLACEMENT_3D('',#4540,#4550,#4560);
#4580=PLANE('',#4570);
#4590=ORIENTED_EDGE('',*,*,#1540,.T.);
#4600=ORIENTED_EDGE('',*,*,#2060,.F.);
#4610=ORIENTED_EDGE('',*,*,#980,.F.);
#4620=ORIENTED_EDGE('',*,*,#3860,.F.);
#4630=EDGE_LOOP('',(#4620,#4610,#4600,#4590));
#4640=FACE_OUTER_BOUND('',#4630,.T.);
#4650=ADVANCED_FACE('',(#4640),#4580,.F.);
#4660=CARTESIAN_POINT('',(2.0306834363428E-31,-1.47667450287796E-15,
9.495));
#4670=DIRECTION('',(0.,0.,-1.));
#4680=DIRECTION('',(-1.,0.,0.));
#4690=AXIS2_PLACEMENT_3D('',#4660,#4670,#4680);
#4700=CONICAL_SURFACE('',#4690,6.00500000000003,0.785398163397451);
#4710=ORIENTED_EDGE('',*,*,#2410,.T.);
#4720=ORIENTED_EDGE('',*,*,#2590,.F.);
#4730=EDGE_CURVE('',#2580,#2670,#2740,.T.);
#4740=ORIENTED_EDGE('',*,*,#4730,.F.);
#4750=ORIENTED_EDGE('',*,*,#2680,.T.);
#4760=EDGE_LOOP('',(#4750,#4740,#4720,#4710));
#4770=FACE_OUTER_BOUND('',#4760,.T.);
#4780=ADVANCED_FACE('',(#4770),#4700,.T.);
#4790=CARTESIAN_POINT('',(0.,-1.77635683940025E-15,10.));
#4800=DIRECTION('',(0.,0.,1.));
#4810=DIRECTION('',(1.,0.,0.));
#4820=AXIS2_PLACEMENT_3D('',#4790,#4800,#4810);
#4830=CYLINDRICAL_SURFACE('',#4820,4.25);
#4840=EDGE_CURVE('',#3310,#3220,#3380,.T.);
#4850=ORIENTED_EDGE('',*,*,#4840,.F.);
#4860=ORIENTED_EDGE('',*,*,#4340,.F.);
#4870=EDGE_CURVE('',#4030,#4120,#4190,.T.);
#4880=ORIENTED_EDGE('',*,*,#4870,.T.);
#4890=ORIENTED_EDGE('',*,*,#4410,.T.);
#4900=EDGE_LOOP('',(#4890,#4880,#4860,#4850));
#4910=FACE_OUTER_BOUND('',#4900,.T.);
#4920=ADVANCED_FACE('',(#4910),#4830,.F.);
#4930=COLOUR_RGB('',1.,0.,0.);
#4940=FILL_AREA_STYLE_COLOUR('',#4930);
#4950=FILL_AREA_STYLE('',(#4940));
#4960=SURFACE_STYLE_FILL_AREA(#4950);
#4970=SURFACE_SIDE_STYLE('',(#4960));
#4980=SURFACE_STYLE_USAGE(.BOTH.,#4970);
#4990=PRESENTATION_STYLE_ASSIGNMENT((#4980));
#5000=CARTESIAN_POINT('',(0.,-1.77635683940025E-15,9.56698729810778));
#5010=DIRECTION('',(0.,0.,1.));
#5020=DIRECTION('',(1.,0.,0.));
#5030=AXIS2_PLACEMENT_3D('',#5000,#5010,#5020);
#5040=CONICAL_SURFACE('',#5030,4.25,1.0471975511966);
#5050=ORIENTED_EDGE('',*,*,#4870,.F.);
#5060=ORIENTED_EDGE('',*,*,#4130,.F.);
#5070=ORIENTED_EDGE('',*,*,#2260,.T.);
#5080=ORIENTED_EDGE('',*,*,#4040,.T.);
#5090=EDGE_LOOP('',(#5080,#5070,#5060,#5050));
#5100=FACE_OUTER_BOUND('',#5090,.T.);
#5110=ADVANCED_FACE('',(#5100),#5040,.F.);
#5120=CARTESIAN_POINT('',(0.,1.55250882127837E-15,9.565));
#5130=DIRECTION('',(0.,0.,-1.));
#5140=DIRECTION('',(-1.,0.,0.));
#5150=AXIS2_PLACEMENT_3D('',#5120,#5130,#5140);
#5160=CYLINDRICAL_SURFACE('',#5150,6.00000000000003);
#5170=ORIENTED_EDGE('',*,*,#4730,.T.);
#5180=ORIENTED_EDGE('',*,*,#2910,.F.);
#5190=ORIENTED_EDGE('',*,*,#3660,.F.);
#5200=ORIENTED_EDGE('',*,*,#3000,.T.);
#5210=EDGE_LOOP('',(#5200,#5190,#5180,#5170));
#5220=FACE_OUTER_BOUND('',#5210,.T.);
#5230=ADVANCED_FACE('',(#5220),#5160,.T.);
#5240=CARTESIAN_POINT('',(11.5,-11.5,-0.0300000000000002));
#5250=DIRECTION('',(0.,0.,1.));
#5260=DIRECTION('',(1.,0.,0.));
#5270=AXIS2_PLACEMENT_3D('',#5240,#5250,#5260);
#5280=CYLINDRICAL_SURFACE('',#5270,2.75);
#5290=ORIENTED_EDGE('',*,*,#560,.T.);
#5300=ORIENTED_EDGE('',*,*,#1700,.F.);
#5310=ORIENTED_EDGE('',*,*,#730,.F.);
#5320=ORIENTED_EDGE('',*,*,#3770,.F.);
#5330=EDGE_LOOP('',(#5320,#5310,#5300,#5290));
#5340=FACE_OUTER_BOUND('',#5330,.T.);
#5350=ADVANCED_FACE('',(#5340),#5280,.F.);
#5360=CARTESIAN_POINT('',(-11.5,11.5,-0.0300000000000002));
#5370=DIRECTION('',(0.,0.,1.));
#5380=DIRECTION('',(1.,0.,0.));
#5390=AXIS2_PLACEMENT_3D('',#5360,#5370,#5380);
#5400=CYLINDRICAL_SURFACE('',#5390,2.75);
#5410=ORIENTED_EDGE('',*,*,#140,.T.);
#5420=ORIENTED_EDGE('',*,*,#1750,.F.);
#5430=ORIENTED_EDGE('',*,*,#310,.F.);
#5440=ORIENTED_EDGE('',*,*,#3720,.F.);
#5450=EDGE_LOOP('',(#5440,#5430,#5420,#5410));
#5460=FACE_OUTER_BOUND('',#5450,.T.);
#5470=ADVANCED_FACE('',(#5460),#5400,.F.);
#5480=CARTESIAN_POINT('',(0.,-1.77635683940025E-15,0.433013000000001));
#5490=DIRECTION('',(0.,0.,-1.));
#5500=DIRECTION('',(-1.,0.,0.));
#5510=AXIS2_PLACEMENT_3D('',#5480,#5490,#5500);
#5520=CONICAL_SURFACE('',#5510,4.25,1.0471975511966);
#5530=ORIENTED_EDGE('',*,*,#4840,.T.);
#5540=ORIENTED_EDGE('',*,*,#3320,.F.);
#5550=ORIENTED_EDGE('',*,*,#1890,.F.);
#5560=ORIENTED_EDGE('',*,*,#3230,.T.);
#5570=EDGE_LOOP('',(#5560,#5550,#5540,#5530));
#5580=FACE_OUTER_BOUND('',#5570,.T.);
#5590=ADVANCED_FACE('',(#5580),#5520,.F.);
#5600=CLOSED_SHELL('',(#420,#840,#1240,#1640,#2110,#2470,#2790,#3110,
#3430,#3600,#3920,#4240,#4460,#4650,#4780,#4920,#5110,#5230,#5350,#5470,
#5590));
#5610=MANIFOLD_SOLID_BREP('',#5600);
#5620=CARTESIAN_POINT('',(0.,0.,0.));
#5630=DIRECTION('',(0.,0.,1.));
#5640=DIRECTION('',(1.,0.,0.));
#5650=AXIS2_PLACEMENT_3D('',#5620,#5630,#5640);
#5660=APPLICATION_CONTEXT(' ');
#5670=APPLICATION_PROTOCOL_DEFINITION(' ','automotive_design',1998,#5660
);
#5680=PRODUCT_CONTEXT('',#5660,'mechanical');
#5690=PRODUCT_DEFINITION_CONTEXT('part definition',#5660,'design');
#5700=PRODUCT('Flansch-MMS-33_30x30x10-M10_33.0246.3_PX176129',
'Flansch-MMS-33_30x30x10-M10_33.0246.3_PX176129','',(#5680));
#5710=PRODUCT_RELATED_PRODUCT_CATEGORY('part',' ',(#5700));
#5720=PRODUCT_DEFINITION_FORMATION_WITH_SPECIFIED_SOURCE('','',#5700,
.BOUGHT.);
#5730=PRODUCT_DEFINITION('',' ',#5720,#5690);
#5740=PRODUCT_DEFINITION_SHAPE('','',#5730);
#5750=DIMENSIONAL_EXPONENTS(1.,0.,0.,0.,0.,0.,0.);
#5760=DIMENSIONAL_EXPONENTS(0.,0.,0.,0.,0.,0.,0.);
#5770=DIMENSIONAL_EXPONENTS(0.,0.,0.,0.,0.,0.,0.);
#5780=(LENGTH_UNIT() NAMED_UNIT(*) SI_UNIT(.MILLI.,.METRE.));
#5790=(NAMED_UNIT(*) PLANE_ANGLE_UNIT() SI_UNIT($,.RADIAN.));
#5800=(NAMED_UNIT(*) SI_UNIT($,.STERADIAN.) SOLID_ANGLE_UNIT());
#5810=(GEOMETRIC_REPRESENTATION_CONTEXT(3) 
GLOBAL_UNCERTAINTY_ASSIGNED_CONTEXT((#5820)) 
GLOBAL_UNIT_ASSIGNED_CONTEXT((#5780,#5790,#5800)) REPRESENTATION_CONTEXT
('',''));
#5820=UNCERTAINTY_MEASURE_WITH_UNIT(LENGTH_MEASURE(1.E-6),#5780,
'distance_accuracy_value','maximum gap value');
#5830=ADVANCED_BREP_SHAPE_REPRESENTATION('',(#5650,#5610),#5810);
#5840=SHAPE_DEFINITION_REPRESENTATION(#5740,#5830);
#5850=COLOUR_RGB('',0.690196096897125,0.886274576187134,1.);
#5860=FILL_AREA_STYLE_COLOUR('',#5850);
#5870=FILL_AREA_STYLE('',(#5860));
#5880=SURFACE_STYLE_FILL_AREA(#5870);
#5890=SURFACE_SIDE_STYLE('',(#5880));
#5900=SURFACE_STYLE_USAGE(.BOTH.,#5890);
#5910=PRESENTATION_STYLE_ASSIGNMENT((#5900));
#5920=STYLED_ITEM('',(#5910),#5610);
#5930=OVER_RIDING_STYLED_ITEM('',(#4530),#4460,#5920);
#5940=OVER_RIDING_STYLED_ITEM('',(#4990),#4920,#5920);
#5950=DRAUGHTING_MODEL('',(#5920,#5930,#5940),#5810);
ENDSEC;
END-ISO-10303-21;
