ISO-10303-21;
HEADER;
FILE_DESCRIPTION(('Creo Elements/Direct Modeling STEP Export'),'2;1');
FILE_NAME(
'//KR-CAD2/PhoenixTemp/karl.letzgus/Konvertierung/33.0300_Profilabdeckun
g-Nut-MMS-33_schwarz.stp','2022-03-18T13:58:24',(''),(''),
'PTC Creo Elements/Direct Modeling STEP processor for AP214 (Solid Model
)',
'PTC Creo Elements/Direct Modeling 19.0C  15-Aug-2015 (C) Parametric Tec
hnology GmbH','');
FILE_SCHEMA(('AUTOMOTIVE_DESIGN { 1 0 10303 214 1 1 1 1 }'));
ENDSEC;
DATA;
#10=CARTESIAN_POINT('',(0.,0.,0.));
#20=DIRECTION('',(0.,0.,1.));
#30=DIRECTION('',(1.,0.,0.));
#40=AXIS2_PLACEMENT_3D('',#10,#20,#30);
#50=PLANE('',#40);
#60=CARTESIAN_POINT('',(-5.99649799999998,0.,0.));
#70=DIRECTION('',(0.,1.,0.));
#80=VECTOR('',#70,1.);
#90=LINE('',#60,#80);
#100=CARTESIAN_POINT('',(-5.99649799999998,-1.298523,0.));
#110=VERTEX_POINT('',#100);
#120=CARTESIAN_POINT('',(-5.99649799999998,0.701477000000008,0.));
#130=VERTEX_POINT('',#120);
#140=EDGE_CURVE('',#110,#130,#90,.T.);
#150=ORIENTED_EDGE('',*,*,#140,.T.);
#160=CARTESIAN_POINT('',(-1.996498,-1.298523,0.));
#170=DIRECTION('',(1.,0.,0.));
#180=VECTOR('',#170,1.);
#190=LINE('',#160,#180);
#200=CARTESIAN_POINT('',(-6.74649799999998,-1.298523,0.));
#210=VERTEX_POINT('',#200);
#220=EDGE_CURVE('',#210,#110,#190,.T.);
#230=ORIENTED_EDGE('',*,*,#220,.T.);
#240=CARTESIAN_POINT('',(-7.28239638486221,0.701477,0.));
#250=DIRECTION('',(-0.258819045102514,0.96592582628907,0.));
#260=VECTOR('',#250,1.);
#270=LINE('',#240,#260);
#280=CARTESIAN_POINT('',(-5.40675203784441,-6.298523,0.));
#290=VERTEX_POINT('',#280);
#300=EDGE_CURVE('',#290,#210,#270,.T.);
#310=ORIENTED_EDGE('',*,*,#300,.T.);
#320=CARTESIAN_POINT('',(-1.996498,-5.38474818457467,0.));
#330=DIRECTION('',(0.965925826289073,0.258819045102505,0.));
#340=VECTOR('',#330,1.);
#350=LINE('',#320,#340);
#360=CARTESIAN_POINT('',(-4.63401137681312,-6.09146776391798,0.));
#370=VERTEX_POINT('',#360);
#380=EDGE_CURVE('',#290,#370,#350,.T.);
#390=ORIENTED_EDGE('',*,*,#380,.F.);
#400=CARTESIAN_POINT('',(-6.45417544053412,0.701477,0.));
#410=DIRECTION('',(-0.258819045102514,0.96592582628907,0.));
#420=VECTOR('',#410,1.);
#430=LINE('',#400,#420);
#440=CARTESIAN_POINT('',(-5.58286795393034,-2.5502868090205,0.));
#450=VERTEX_POINT('',#440);
#460=EDGE_CURVE('',#370,#450,#430,.T.);
#470=ORIENTED_EDGE('',*,*,#460,.F.);
#480=CARTESIAN_POINT('',(-5.38968278867253,-2.498523,0.));
#490=DIRECTION('',(0.,0.,-1.));
#500=DIRECTION('',(1.,0.,0.));
#510=AXIS2_PLACEMENT_3D('',#480,#490,#500);
#520=CIRCLE('',#510,0.199999999999998);
#530=CARTESIAN_POINT('',(-5.38968278867253,-2.298523,0.));
#540=VERTEX_POINT('',#530);
#550=EDGE_CURVE('',#450,#540,#520,.T.);
#560=ORIENTED_EDGE('',*,*,#550,.F.);
#570=CARTESIAN_POINT('',(-1.996498,-2.298523,0.));
#580=DIRECTION('',(1.,0.,0.));
#590=VECTOR('',#580,1.);
#600=LINE('',#570,#590);
#610=CARTESIAN_POINT('',(-4.99649799999992,-2.298523,0.));
#620=VERTEX_POINT('',#610);
#630=EDGE_CURVE('',#540,#620,#600,.T.);
#640=ORIENTED_EDGE('',*,*,#630,.F.);
#650=CARTESIAN_POINT('',(-4.99649799999992,0.701477,0.));
#660=DIRECTION('',(0.,1.,0.));
#670=VECTOR('',#660,1.);
#680=LINE('',#650,#670);
#690=CARTESIAN_POINT('',(-4.99649799999992,-0.298523,0.));
#700=VERTEX_POINT('',#690);
#710=EDGE_CURVE('',#620,#700,#680,.T.);
#720=ORIENTED_EDGE('',*,*,#710,.F.);
#730=CARTESIAN_POINT('',(-1.996498,-0.298523,0.));
#740=DIRECTION('',(1.,0.,0.));
#750=VECTOR('',#740,1.);
#760=LINE('',#730,#750);
#770=CARTESIAN_POINT('',(1.003502,-0.298523,0.));
#780=VERTEX_POINT('',#770);
#790=EDGE_CURVE('',#700,#780,#760,.T.);
#800=ORIENTED_EDGE('',*,*,#790,.F.);
#810=CARTESIAN_POINT('',(1.003502,0.701477,0.));
#820=DIRECTION('',(0.,-1.,0.));
#830=VECTOR('',#820,1.);
#840=LINE('',#810,#830);
#850=CARTESIAN_POINT('',(1.003502,-2.298523,0.));
#860=VERTEX_POINT('',#850);
#870=EDGE_CURVE('',#780,#860,#840,.T.);
#880=ORIENTED_EDGE('',*,*,#870,.F.);
#890=CARTESIAN_POINT('',(-1.996498,-2.298523,0.));
#900=DIRECTION('',(1.,0.,0.));
#910=VECTOR('',#900,1.);
#920=LINE('',#890,#910);
#930=CARTESIAN_POINT('',(1.39668678867256,-2.298523,0.));
#940=VERTEX_POINT('',#930);
#950=EDGE_CURVE('',#860,#940,#920,.T.);
#960=ORIENTED_EDGE('',*,*,#950,.F.);
#970=CARTESIAN_POINT('',(1.39668678867256,-2.498523,0.));
#980=DIRECTION('',(0.,0.,-1.));
#990=DIRECTION('',(1.,0.,0.));
#1000=AXIS2_PLACEMENT_3D('',#970,#980,#990);
#1010=CIRCLE('',#1000,0.200000000000001);
#1020=CARTESIAN_POINT('',(1.58987195393037,-2.5502868090205,0.));
#1030=VERTEX_POINT('',#1020);
#1040=EDGE_CURVE('',#940,#1030,#1010,.T.);
#1050=ORIENTED_EDGE('',*,*,#1040,.F.);
#1060=CARTESIAN_POINT('',(2.46117944053415,0.701477,0.));
#1070=DIRECTION('',(-0.258819045102515,-0.96592582628907,0.));
#1080=VECTOR('',#1070,1.);
#1090=LINE('',#1060,#1080);
#1100=CARTESIAN_POINT('',(0.641015376813144,-6.09146776391797,0.));
#1110=VERTEX_POINT('',#1100);
#1120=EDGE_CURVE('',#1030,#1110,#1090,.T.);
#1130=ORIENTED_EDGE('',*,*,#1120,.F.);
#1140=CARTESIAN_POINT('',(-1.996498,-5.38474818457463,0.));
#1150=DIRECTION('',(0.96592582628907,-0.258819045102514,0.));
#1160=VECTOR('',#1150,1.);
#1170=LINE('',#1140,#1160);
#1180=CARTESIAN_POINT('',(1.41375603784439,-6.29852299999999,0.));
#1190=VERTEX_POINT('',#1180);
#1200=EDGE_CURVE('',#1110,#1190,#1170,.T.);
#1210=ORIENTED_EDGE('',*,*,#1200,.F.);
#1220=CARTESIAN_POINT('',(3.28940038486227,0.701477,0.));
#1230=DIRECTION('',(-0.258819045102525,-0.965925826289067,0.));
#1240=VECTOR('',#1230,1.);
#1250=LINE('',#1220,#1240);
#1260=CARTESIAN_POINT('',(2.75350200000002,-1.298523,0.));
#1270=VERTEX_POINT('',#1260);
#1280=EDGE_CURVE('',#1270,#1190,#1250,.T.);
#1290=ORIENTED_EDGE('',*,*,#1280,.T.);
#1300=CARTESIAN_POINT('',(-1.996498,-1.298523,0.));
#1310=DIRECTION('',(1.,0.,0.));
#1320=VECTOR('',#1310,1.);
#1330=LINE('',#1300,#1320);
#1340=CARTESIAN_POINT('',(2.00350200000002,-1.298523,0.));
#1350=VERTEX_POINT('',#1340);
#1360=EDGE_CURVE('',#1350,#1270,#1330,.T.);
#1370=ORIENTED_EDGE('',*,*,#1360,.T.);
#1380=CARTESIAN_POINT('',(2.00350200000002,0.,0.));
#1390=DIRECTION('',(0.,-1.,0.));
#1400=VECTOR('',#1390,1.);
#1410=LINE('',#1380,#1400);
#1420=CARTESIAN_POINT('',(2.00350200000002,0.701477000000008,0.));
#1430=VERTEX_POINT('',#1420);
#1440=EDGE_CURVE('',#1430,#1350,#1410,.T.);
#1450=ORIENTED_EDGE('',*,*,#1440,.T.);
#1460=CARTESIAN_POINT('',(0.,0.701477000000008,0.));
#1470=DIRECTION('',(1.,0.,0.));
#1480=VECTOR('',#1470,1.);
#1490=LINE('',#1460,#1480);
#1500=EDGE_CURVE('',#130,#1430,#1490,.T.);
#1510=ORIENTED_EDGE('',*,*,#1500,.T.);
#1520=EDGE_LOOP('',(#1510,#1450,#1370,#1290,#1210,#1130,#1050,#960,#880,
#800,#720,#640,#560,#470,#390,#310,#230,#150));
#1530=FACE_OUTER_BOUND('',#1520,.T.);
#1540=ADVANCED_FACE('',(#1530),#50,.F.);
#1550=CARTESIAN_POINT('',(0.,0.,100.));
#1560=DIRECTION('',(0.,0.,1.));
#1570=DIRECTION('',(1.,0.,0.));
#1580=AXIS2_PLACEMENT_3D('',#1550,#1560,#1570);
#1590=PLANE('',#1580);
#1600=CARTESIAN_POINT('',(0.,0.701477000000008,100.));
#1610=DIRECTION('',(1.,0.,0.));
#1620=VECTOR('',#1610,1.);
#1630=LINE('',#1600,#1620);
#1640=CARTESIAN_POINT('',(-5.99649799999998,0.701477000000008,100.));
#1650=VERTEX_POINT('',#1640);
#1660=CARTESIAN_POINT('',(2.00350200000002,0.701477000000008,100.));
#1670=VERTEX_POINT('',#1660);
#1680=EDGE_CURVE('',#1650,#1670,#1630,.T.);
#1690=ORIENTED_EDGE('',*,*,#1680,.F.);
#1700=CARTESIAN_POINT('',(2.00350200000002,0.,100.));
#1710=DIRECTION('',(0.,-1.,0.));
#1720=VECTOR('',#1710,1.);
#1730=LINE('',#1700,#1720);
#1740=CARTESIAN_POINT('',(2.00350200000002,-1.298523,100.));
#1750=VERTEX_POINT('',#1740);
#1760=EDGE_CURVE('',#1670,#1750,#1730,.T.);
#1770=ORIENTED_EDGE('',*,*,#1760,.F.);
#1780=CARTESIAN_POINT('',(-1.996498,-1.298523,100.));
#1790=DIRECTION('',(1.,0.,0.));
#1800=VECTOR('',#1790,1.);
#1810=LINE('',#1780,#1800);
#1820=CARTESIAN_POINT('',(2.75350200000002,-1.298523,100.));
#1830=VERTEX_POINT('',#1820);
#1840=EDGE_CURVE('',#1750,#1830,#1810,.T.);
#1850=ORIENTED_EDGE('',*,*,#1840,.F.);
#1860=CARTESIAN_POINT('',(3.28940038486227,0.701477,100.));
#1870=DIRECTION('',(-0.258819045102525,-0.965925826289067,0.));
#1880=VECTOR('',#1870,1.);
#1890=LINE('',#1860,#1880);
#1900=CARTESIAN_POINT('',(1.41375603784439,-6.29852299999999,100.));
#1910=VERTEX_POINT('',#1900);
#1920=EDGE_CURVE('',#1830,#1910,#1890,.T.);
#1930=ORIENTED_EDGE('',*,*,#1920,.F.);
#1940=CARTESIAN_POINT('',(-1.996498,-5.38474818457463,100.));
#1950=DIRECTION('',(0.96592582628907,-0.258819045102514,0.));
#1960=VECTOR('',#1950,1.);
#1970=LINE('',#1940,#1960);
#1980=CARTESIAN_POINT('',(0.641015376813144,-6.09146776391797,100.));
#1990=VERTEX_POINT('',#1980);
#2000=EDGE_CURVE('',#1990,#1910,#1970,.T.);
#2010=ORIENTED_EDGE('',*,*,#2000,.T.);
#2020=CARTESIAN_POINT('',(2.46117944053415,0.701477,100.));
#2030=DIRECTION('',(-0.258819045102515,-0.96592582628907,0.));
#2040=VECTOR('',#2030,1.);
#2050=LINE('',#2020,#2040);
#2060=CARTESIAN_POINT('',(1.58987195393037,-2.5502868090205,100.));
#2070=VERTEX_POINT('',#2060);
#2080=EDGE_CURVE('',#2070,#1990,#2050,.T.);
#2090=ORIENTED_EDGE('',*,*,#2080,.T.);
#2100=CARTESIAN_POINT('',(1.39668678867256,-2.498523,100.));
#2110=DIRECTION('',(0.,0.,-1.));
#2120=DIRECTION('',(1.,0.,0.));
#2130=AXIS2_PLACEMENT_3D('',#2100,#2110,#2120);
#2140=CIRCLE('',#2130,0.200000000000001);
#2150=CARTESIAN_POINT('',(1.39668678867256,-2.298523,100.));
#2160=VERTEX_POINT('',#2150);
#2170=EDGE_CURVE('',#2160,#2070,#2140,.T.);
#2180=ORIENTED_EDGE('',*,*,#2170,.T.);
#2190=CARTESIAN_POINT('',(-1.996498,-2.298523,100.));
#2200=DIRECTION('',(1.,0.,0.));
#2210=VECTOR('',#2200,1.);
#2220=LINE('',#2190,#2210);
#2230=CARTESIAN_POINT('',(1.003502,-2.298523,100.));
#2240=VERTEX_POINT('',#2230);
#2250=EDGE_CURVE('',#2240,#2160,#2220,.T.);
#2260=ORIENTED_EDGE('',*,*,#2250,.T.);
#2270=CARTESIAN_POINT('',(1.003502,0.701477,100.));
#2280=DIRECTION('',(0.,-1.,0.));
#2290=VECTOR('',#2280,1.);
#2300=LINE('',#2270,#2290);
#2310=CARTESIAN_POINT('',(1.003502,-0.298523,100.));
#2320=VERTEX_POINT('',#2310);
#2330=EDGE_CURVE('',#2320,#2240,#2300,.T.);
#2340=ORIENTED_EDGE('',*,*,#2330,.T.);
#2350=CARTESIAN_POINT('',(-1.996498,-0.298523,100.));
#2360=DIRECTION('',(1.,0.,0.));
#2370=VECTOR('',#2360,1.);
#2380=LINE('',#2350,#2370);
#2390=CARTESIAN_POINT('',(-4.99649799999992,-0.298523,100.));
#2400=VERTEX_POINT('',#2390);
#2410=EDGE_CURVE('',#2400,#2320,#2380,.T.);
#2420=ORIENTED_EDGE('',*,*,#2410,.T.);
#2430=CARTESIAN_POINT('',(-4.99649799999992,0.701477,100.));
#2440=DIRECTION('',(0.,1.,0.));
#2450=VECTOR('',#2440,1.);
#2460=LINE('',#2430,#2450);
#2470=CARTESIAN_POINT('',(-4.99649799999992,-2.298523,100.));
#2480=VERTEX_POINT('',#2470);
#2490=EDGE_CURVE('',#2480,#2400,#2460,.T.);
#2500=ORIENTED_EDGE('',*,*,#2490,.T.);
#2510=CARTESIAN_POINT('',(-1.996498,-2.298523,100.));
#2520=DIRECTION('',(1.,0.,0.));
#2530=VECTOR('',#2520,1.);
#2540=LINE('',#2510,#2530);
#2550=CARTESIAN_POINT('',(-5.38968278867253,-2.298523,100.));
#2560=VERTEX_POINT('',#2550);
#2570=EDGE_CURVE('',#2560,#2480,#2540,.T.);
#2580=ORIENTED_EDGE('',*,*,#2570,.T.);
#2590=CARTESIAN_POINT('',(-5.38968278867253,-2.498523,100.));
#2600=DIRECTION('',(0.,0.,-1.));
#2610=DIRECTION('',(1.,0.,0.));
#2620=AXIS2_PLACEMENT_3D('',#2590,#2600,#2610);
#2630=CIRCLE('',#2620,0.199999999999998);
#2640=CARTESIAN_POINT('',(-5.58286795393034,-2.5502868090205,100.));
#2650=VERTEX_POINT('',#2640);
#2660=EDGE_CURVE('',#2650,#2560,#2630,.T.);
#2670=ORIENTED_EDGE('',*,*,#2660,.T.);
#2680=CARTESIAN_POINT('',(-6.45417544053412,0.701477,100.));
#2690=DIRECTION('',(-0.258819045102514,0.96592582628907,0.));
#2700=VECTOR('',#2690,1.);
#2710=LINE('',#2680,#2700);
#2720=CARTESIAN_POINT('',(-4.63401137681312,-6.09146776391798,100.));
#2730=VERTEX_POINT('',#2720);
#2740=EDGE_CURVE('',#2730,#2650,#2710,.T.);
#2750=ORIENTED_EDGE('',*,*,#2740,.T.);
#2760=CARTESIAN_POINT('',(-1.996498,-5.38474818457467,100.));
#2770=DIRECTION('',(0.965925826289073,0.258819045102505,0.));
#2780=VECTOR('',#2770,1.);
#2790=LINE('',#2760,#2780);
#2800=CARTESIAN_POINT('',(-5.40675203784441,-6.298523,100.));
#2810=VERTEX_POINT('',#2800);
#2820=EDGE_CURVE('',#2810,#2730,#2790,.T.);
#2830=ORIENTED_EDGE('',*,*,#2820,.T.);
#2840=CARTESIAN_POINT('',(-7.28239638486221,0.701477,100.));
#2850=DIRECTION('',(-0.258819045102514,0.96592582628907,0.));
#2860=VECTOR('',#2850,1.);
#2870=LINE('',#2840,#2860);
#2880=CARTESIAN_POINT('',(-6.74649799999998,-1.298523,100.));
#2890=VERTEX_POINT('',#2880);
#2900=EDGE_CURVE('',#2810,#2890,#2870,.T.);
#2910=ORIENTED_EDGE('',*,*,#2900,.F.);
#2920=CARTESIAN_POINT('',(-1.996498,-1.298523,100.));
#2930=DIRECTION('',(1.,0.,0.));
#2940=VECTOR('',#2930,1.);
#2950=LINE('',#2920,#2940);
#2960=CARTESIAN_POINT('',(-5.99649799999998,-1.298523,100.));
#2970=VERTEX_POINT('',#2960);
#2980=EDGE_CURVE('',#2890,#2970,#2950,.T.);
#2990=ORIENTED_EDGE('',*,*,#2980,.F.);
#3000=CARTESIAN_POINT('',(-5.99649799999998,0.,100.));
#3010=DIRECTION('',(0.,1.,0.));
#3020=VECTOR('',#3010,1.);
#3030=LINE('',#3000,#3020);
#3040=EDGE_CURVE('',#2970,#1650,#3030,.T.);
#3050=ORIENTED_EDGE('',*,*,#3040,.F.);
#3060=EDGE_LOOP('',(#3050,#2990,#2910,#2830,#2750,#2670,#2580,#2500,
#2420,#2340,#2260,#2180,#2090,#2010,#1930,#1850,#1770,#1690));
#3070=FACE_OUTER_BOUND('',#3060,.T.);
#3080=ADVANCED_FACE('',(#3070),#1590,.T.);
#3090=CARTESIAN_POINT('',(1.41375603784438,-6.298523,0.));
#3100=DIRECTION('',(-0.258819045102514,-0.96592582628907,-0.));
#3110=DIRECTION('',(-0.96592582628907,0.258819045102514,0.));
#3120=AXIS2_PLACEMENT_3D('',#3090,#3100,#3110);
#3130=PLANE('',#3120);
#3140=CARTESIAN_POINT('',(0.641015376813145,-6.09146776391797,0.));
#3150=DIRECTION('',(0.,0.,1.));
#3160=VECTOR('',#3150,1.);
#3170=LINE('',#3140,#3160);
#3180=EDGE_CURVE('',#1110,#1990,#3170,.T.);
#3190=ORIENTED_EDGE('',*,*,#3180,.F.);
#3200=ORIENTED_EDGE('',*,*,#2000,.F.);
#3210=CARTESIAN_POINT('',(1.41375603784438,-6.298523,0.));
#3220=DIRECTION('',(0.,0.,1.));
#3230=VECTOR('',#3220,1.);
#3240=LINE('',#3210,#3230);
#3250=EDGE_CURVE('',#1190,#1910,#3240,.T.);
#3260=ORIENTED_EDGE('',*,*,#3250,.T.);
#3270=ORIENTED_EDGE('',*,*,#1200,.T.);
#3280=EDGE_LOOP('',(#3270,#3260,#3200,#3190));
#3290=FACE_OUTER_BOUND('',#3280,.T.);
#3300=ADVANCED_FACE('',(#3290),#3130,.T.);
#3310=CARTESIAN_POINT('',(2.75350200000002,-1.298523,0.));
#3320=DIRECTION('',(0.965925826289067,-0.258819045102525,0.));
#3330=DIRECTION('',(-0.258819045102525,-0.965925826289067,0.));
#3340=AXIS2_PLACEMENT_3D('',#3310,#3320,#3330);
#3350=PLANE('',#3340);
#3360=ORIENTED_EDGE('',*,*,#3250,.F.);
#3370=ORIENTED_EDGE('',*,*,#1920,.T.);
#3380=CARTESIAN_POINT('',(2.75350200000002,-1.298523,0.));
#3390=DIRECTION('',(0.,0.,1.));
#3400=VECTOR('',#3390,1.);
#3410=LINE('',#3380,#3400);
#3420=EDGE_CURVE('',#1270,#1830,#3410,.T.);
#3430=ORIENTED_EDGE('',*,*,#3420,.T.);
#3440=ORIENTED_EDGE('',*,*,#1280,.F.);
#3450=EDGE_LOOP('',(#3440,#3430,#3370,#3360));
#3460=FACE_OUTER_BOUND('',#3450,.T.);
#3470=ADVANCED_FACE('',(#3460),#3350,.T.);
#3480=CARTESIAN_POINT('',(2.00350200000002,-1.298523,0.));
#3490=DIRECTION('',(-0.,1.,0.));
#3500=DIRECTION('',(1.,0.,0.));
#3510=AXIS2_PLACEMENT_3D('',#3480,#3490,#3500);
#3520=PLANE('',#3510);
#3530=ORIENTED_EDGE('',*,*,#3420,.F.);
#3540=ORIENTED_EDGE('',*,*,#1840,.T.);
#3550=CARTESIAN_POINT('',(2.00350200000002,-1.298523,0.));
#3560=DIRECTION('',(0.,0.,1.));
#3570=VECTOR('',#3560,1.);
#3580=LINE('',#3550,#3570);
#3590=EDGE_CURVE('',#1350,#1750,#3580,.T.);
#3600=ORIENTED_EDGE('',*,*,#3590,.T.);
#3610=ORIENTED_EDGE('',*,*,#1360,.F.);
#3620=EDGE_LOOP('',(#3610,#3600,#3540,#3530));
#3630=FACE_OUTER_BOUND('',#3620,.T.);
#3640=ADVANCED_FACE('',(#3630),#3520,.T.);
#3650=CARTESIAN_POINT('',(2.00350200000002,0.401477,0.));
#3660=DIRECTION('',(1.,0.,0.));
#3670=DIRECTION('',(0.,-1.,0.));
#3680=AXIS2_PLACEMENT_3D('',#3650,#3660,#3670);
#3690=PLANE('',#3680);
#3700=ORIENTED_EDGE('',*,*,#1440,.F.);
#3710=ORIENTED_EDGE('',*,*,#3590,.F.);
#3720=ORIENTED_EDGE('',*,*,#1760,.T.);
#3730=CARTESIAN_POINT('',(2.00350200000002,0.701477000000008,0.));
#3740=DIRECTION('',(0.,0.,-1.));
#3750=VECTOR('',#3740,1.);
#3760=LINE('',#3730,#3750);
#3770=EDGE_CURVE('',#1670,#1430,#3760,.T.);
#3780=ORIENTED_EDGE('',*,*,#3770,.F.);
#3790=EDGE_LOOP('',(#3780,#3720,#3710,#3700));
#3800=FACE_OUTER_BOUND('',#3790,.T.);
#3810=ADVANCED_FACE('',(#3800),#3690,.T.);
#3820=CARTESIAN_POINT('',(0.641015376813145,-6.09146776391797,0.));
#3830=DIRECTION('',(-0.96592582628907,0.258819045102515,0.));
#3840=DIRECTION('',(0.258819045102515,0.96592582628907,0.));
#3850=AXIS2_PLACEMENT_3D('',#3820,#3830,#3840);
#3860=PLANE('',#3850);
#3870=CARTESIAN_POINT('',(1.58987195393037,-2.5502868090205,0.));
#3880=DIRECTION('',(0.,0.,1.));
#3890=VECTOR('',#3880,1.);
#3900=LINE('',#3870,#3890);
#3910=EDGE_CURVE('',#1030,#2070,#3900,.T.);
#3920=ORIENTED_EDGE('',*,*,#3910,.F.);
#3930=ORIENTED_EDGE('',*,*,#2080,.F.);
#3940=ORIENTED_EDGE('',*,*,#3180,.T.);
#3950=ORIENTED_EDGE('',*,*,#1120,.T.);
#3960=EDGE_LOOP('',(#3950,#3940,#3930,#3920));
#3970=FACE_OUTER_BOUND('',#3960,.T.);
#3980=ADVANCED_FACE('',(#3970),#3860,.T.);
#3990=CARTESIAN_POINT('',(-5.69649799999998,0.701477000000008,0.));
#4000=DIRECTION('',(-0.,1.,0.));
#4010=DIRECTION('',(1.,0.,0.));
#4020=AXIS2_PLACEMENT_3D('',#3990,#4000,#4010);
#4030=PLANE('',#4020);
#4040=ORIENTED_EDGE('',*,*,#1500,.F.);
#4050=ORIENTED_EDGE('',*,*,#3770,.T.);
#4060=ORIENTED_EDGE('',*,*,#1680,.T.);
#4070=CARTESIAN_POINT('',(-5.99649799999998,0.701477000000008,0.));
#4080=DIRECTION('',(0.,0.,-1.));
#4090=VECTOR('',#4080,1.);
#4100=LINE('',#4070,#4090);
#4110=EDGE_CURVE('',#1650,#130,#4100,.T.);
#4120=ORIENTED_EDGE('',*,*,#4110,.F.);
#4130=EDGE_LOOP('',(#4120,#4060,#4050,#4040));
#4140=FACE_OUTER_BOUND('',#4130,.T.);
#4150=ADVANCED_FACE('',(#4140),#4030,.T.);
#4160=CARTESIAN_POINT('',(1.39668678867256,-2.498523,0.));
#4170=DIRECTION('',(0.,0.,-1.));
#4180=DIRECTION('',(1.,0.,0.));
#4190=AXIS2_PLACEMENT_3D('',#4160,#4170,#4180);
#4200=CYLINDRICAL_SURFACE('',#4190,0.200000000000001);
#4210=CARTESIAN_POINT('',(1.39668678867256,-2.298523,0.));
#4220=DIRECTION('',(0.,0.,1.));
#4230=VECTOR('',#4220,1.);
#4240=LINE('',#4210,#4230);
#4250=EDGE_CURVE('',#940,#2160,#4240,.T.);
#4260=ORIENTED_EDGE('',*,*,#4250,.F.);
#4270=ORIENTED_EDGE('',*,*,#2170,.F.);
#4280=ORIENTED_EDGE('',*,*,#3910,.T.);
#4290=ORIENTED_EDGE('',*,*,#1040,.T.);
#4300=EDGE_LOOP('',(#4290,#4280,#4270,#4260));
#4310=FACE_OUTER_BOUND('',#4300,.T.);
#4320=ADVANCED_FACE('',(#4310),#4200,.F.);
#4330=CARTESIAN_POINT('',(-5.99649799999998,-1.298523,0.));
#4340=DIRECTION('',(-1.,0.,0.));
#4350=DIRECTION('',(0.,1.,0.));
#4360=AXIS2_PLACEMENT_3D('',#4330,#4340,#4350);
#4370=PLANE('',#4360);
#4380=ORIENTED_EDGE('',*,*,#4110,.T.);
#4390=ORIENTED_EDGE('',*,*,#3040,.T.);
#4400=CARTESIAN_POINT('',(-5.99649799999998,-1.298523,0.));
#4410=DIRECTION('',(0.,0.,1.));
#4420=VECTOR('',#4410,1.);
#4430=LINE('',#4400,#4420);
#4440=EDGE_CURVE('',#110,#2970,#4430,.T.);
#4450=ORIENTED_EDGE('',*,*,#4440,.T.);
#4460=ORIENTED_EDGE('',*,*,#140,.F.);
#4470=EDGE_LOOP('',(#4460,#4450,#4390,#4380));
#4480=FACE_OUTER_BOUND('',#4470,.T.);
#4490=ADVANCED_FACE('',(#4480),#4370,.T.);
#4500=CARTESIAN_POINT('',(-6.74649799999998,-1.298523,0.));
#4510=DIRECTION('',(-0.,1.,0.));
#4520=DIRECTION('',(1.,0.,0.));
#4530=AXIS2_PLACEMENT_3D('',#4500,#4510,#4520);
#4540=PLANE('',#4530);
#4550=ORIENTED_EDGE('',*,*,#4440,.F.);
#4560=ORIENTED_EDGE('',*,*,#2980,.T.);
#4570=CARTESIAN_POINT('',(-6.74649799999998,-1.298523,0.));
#4580=DIRECTION('',(0.,0.,1.));
#4590=VECTOR('',#4580,1.);
#4600=LINE('',#4570,#4590);
#4610=EDGE_CURVE('',#210,#2890,#4600,.T.);
#4620=ORIENTED_EDGE('',*,*,#4610,.T.);
#4630=ORIENTED_EDGE('',*,*,#220,.F.);
#4640=EDGE_LOOP('',(#4630,#4620,#4560,#4550));
#4650=FACE_OUTER_BOUND('',#4640,.T.);
#4660=ADVANCED_FACE('',(#4650),#4540,.T.);
#4670=CARTESIAN_POINT('',(-5.40675203784441,-6.298523,0.));
#4680=DIRECTION('',(-0.96592582628907,-0.258819045102514,-0.));
#4690=DIRECTION('',(-0.258819045102514,0.96592582628907,0.));
#4700=AXIS2_PLACEMENT_3D('',#4670,#4680,#4690);
#4710=PLANE('',#4700);
#4720=ORIENTED_EDGE('',*,*,#4610,.F.);
#4730=ORIENTED_EDGE('',*,*,#2900,.T.);
#4740=CARTESIAN_POINT('',(-5.40675203784441,-6.298523,0.));
#4750=DIRECTION('',(0.,0.,1.));
#4760=VECTOR('',#4750,1.);
#4770=LINE('',#4740,#4760);
#4780=EDGE_CURVE('',#290,#2810,#4770,.T.);
#4790=ORIENTED_EDGE('',*,*,#4780,.T.);
#4800=ORIENTED_EDGE('',*,*,#300,.F.);
#4810=EDGE_LOOP('',(#4800,#4790,#4730,#4720));
#4820=FACE_OUTER_BOUND('',#4810,.T.);
#4830=ADVANCED_FACE('',(#4820),#4710,.T.);
#4840=CARTESIAN_POINT('',(-4.63401137681312,-6.09146776391798,0.));
#4850=DIRECTION('',(0.258819045102505,-0.965925826289073,0.));
#4860=DIRECTION('',(-0.965925826289073,-0.258819045102505,0.));
#4870=AXIS2_PLACEMENT_3D('',#4840,#4850,#4860);
#4880=PLANE('',#4870);
#4890=ORIENTED_EDGE('',*,*,#4780,.F.);
#4900=ORIENTED_EDGE('',*,*,#2820,.F.);
#4910=CARTESIAN_POINT('',(-4.63401137681312,-6.09146776391798,0.));
#4920=DIRECTION('',(0.,0.,1.));
#4930=VECTOR('',#4920,1.);
#4940=LINE('',#4910,#4930);
#4950=EDGE_CURVE('',#370,#2730,#4940,.T.);
#4960=ORIENTED_EDGE('',*,*,#4950,.T.);
#4970=ORIENTED_EDGE('',*,*,#380,.T.);
#4980=EDGE_LOOP('',(#4970,#4960,#4900,#4890));
#4990=FACE_OUTER_BOUND('',#4980,.T.);
#5000=ADVANCED_FACE('',(#4990),#4880,.T.);
#5010=CARTESIAN_POINT('',(-5.58286795393034,-2.5502868090205,0.));
#5020=DIRECTION('',(0.96592582628907,0.258819045102514,0.));
#5030=DIRECTION('',(0.258819045102514,-0.96592582628907,0.));
#5040=AXIS2_PLACEMENT_3D('',#5010,#5020,#5030);
#5050=PLANE('',#5040);
#5060=ORIENTED_EDGE('',*,*,#4950,.F.);
#5070=ORIENTED_EDGE('',*,*,#2740,.F.);
#5080=CARTESIAN_POINT('',(-5.58286795393034,-2.5502868090205,0.));
#5090=DIRECTION('',(0.,0.,1.));
#5100=VECTOR('',#5090,1.);
#5110=LINE('',#5080,#5100);
#5120=EDGE_CURVE('',#450,#2650,#5110,.T.);
#5130=ORIENTED_EDGE('',*,*,#5120,.T.);
#5140=ORIENTED_EDGE('',*,*,#460,.T.);
#5150=EDGE_LOOP('',(#5140,#5130,#5070,#5060));
#5160=FACE_OUTER_BOUND('',#5150,.T.);
#5170=ADVANCED_FACE('',(#5160),#5050,.T.);
#5180=CARTESIAN_POINT('',(-5.38968278867253,-2.498523,0.));
#5190=DIRECTION('',(0.,0.,-1.));
#5200=DIRECTION('',(1.,0.,0.));
#5210=AXIS2_PLACEMENT_3D('',#5180,#5190,#5200);
#5220=CYLINDRICAL_SURFACE('',#5210,0.199999999999998);
#5230=ORIENTED_EDGE('',*,*,#5120,.F.);
#5240=ORIENTED_EDGE('',*,*,#2660,.F.);
#5250=CARTESIAN_POINT('',(-5.38968278867253,-2.298523,0.));
#5260=DIRECTION('',(0.,0.,1.));
#5270=VECTOR('',#5260,1.);
#5280=LINE('',#5250,#5270);
#5290=EDGE_CURVE('',#540,#2560,#5280,.T.);
#5300=ORIENTED_EDGE('',*,*,#5290,.T.);
#5310=ORIENTED_EDGE('',*,*,#550,.T.);
#5320=EDGE_LOOP('',(#5310,#5300,#5240,#5230));
#5330=FACE_OUTER_BOUND('',#5320,.T.);
#5340=ADVANCED_FACE('',(#5330),#5220,.F.);
#5350=CARTESIAN_POINT('',(-4.99649799999992,-2.298523,0.));
#5360=DIRECTION('',(-0.,-1.,-0.));
#5370=DIRECTION('',(-1.,0.,0.));
#5380=AXIS2_PLACEMENT_3D('',#5350,#5360,#5370);
#5390=PLANE('',#5380);
#5400=ORIENTED_EDGE('',*,*,#5290,.F.);
#5410=ORIENTED_EDGE('',*,*,#2570,.F.);
#5420=CARTESIAN_POINT('',(-4.99649799999992,-2.298523,0.));
#5430=DIRECTION('',(0.,0.,1.));
#5440=VECTOR('',#5430,1.);
#5450=LINE('',#5420,#5440);
#5460=EDGE_CURVE('',#620,#2480,#5450,.T.);
#5470=ORIENTED_EDGE('',*,*,#5460,.T.);
#5480=ORIENTED_EDGE('',*,*,#630,.T.);
#5490=EDGE_LOOP('',(#5480,#5470,#5410,#5400));
#5500=FACE_OUTER_BOUND('',#5490,.T.);
#5510=ADVANCED_FACE('',(#5500),#5390,.T.);
#5520=CARTESIAN_POINT('',(-4.99649799999992,-0.298523,0.));
#5530=DIRECTION('',(1.,0.,0.));
#5540=DIRECTION('',(0.,-1.,0.));
#5550=AXIS2_PLACEMENT_3D('',#5520,#5530,#5540);
#5560=PLANE('',#5550);
#5570=ORIENTED_EDGE('',*,*,#5460,.F.);
#5580=ORIENTED_EDGE('',*,*,#2490,.F.);
#5590=CARTESIAN_POINT('',(-4.99649799999992,-0.298523,0.));
#5600=DIRECTION('',(0.,0.,1.));
#5610=VECTOR('',#5600,1.);
#5620=LINE('',#5590,#5610);
#5630=EDGE_CURVE('',#700,#2400,#5620,.T.);
#5640=ORIENTED_EDGE('',*,*,#5630,.T.);
#5650=ORIENTED_EDGE('',*,*,#710,.T.);
#5660=EDGE_LOOP('',(#5650,#5640,#5580,#5570));
#5670=FACE_OUTER_BOUND('',#5660,.T.);
#5680=ADVANCED_FACE('',(#5670),#5560,.T.);
#5690=CARTESIAN_POINT('',(1.003502,-0.298523,0.));
#5700=DIRECTION('',(-0.,-1.,-0.));
#5710=DIRECTION('',(-1.,0.,0.));
#5720=AXIS2_PLACEMENT_3D('',#5690,#5700,#5710);
#5730=PLANE('',#5720);
#5740=ORIENTED_EDGE('',*,*,#5630,.F.);
#5750=ORIENTED_EDGE('',*,*,#2410,.F.);
#5760=CARTESIAN_POINT('',(1.003502,-0.298523,0.));
#5770=DIRECTION('',(0.,0.,1.));
#5780=VECTOR('',#5770,1.);
#5790=LINE('',#5760,#5780);
#5800=EDGE_CURVE('',#780,#2320,#5790,.T.);
#5810=ORIENTED_EDGE('',*,*,#5800,.T.);
#5820=ORIENTED_EDGE('',*,*,#790,.T.);
#5830=EDGE_LOOP('',(#5820,#5810,#5750,#5740));
#5840=FACE_OUTER_BOUND('',#5830,.T.);
#5850=ADVANCED_FACE('',(#5840),#5730,.T.);
#5860=CARTESIAN_POINT('',(1.003502,-2.298523,0.));
#5870=DIRECTION('',(-1.,0.,0.));
#5880=DIRECTION('',(0.,1.,0.));
#5890=AXIS2_PLACEMENT_3D('',#5860,#5870,#5880);
#5900=PLANE('',#5890);
#5910=ORIENTED_EDGE('',*,*,#5800,.F.);
#5920=ORIENTED_EDGE('',*,*,#2330,.F.);
#5930=CARTESIAN_POINT('',(1.003502,-2.298523,0.));
#5940=DIRECTION('',(0.,0.,1.));
#5950=VECTOR('',#5940,1.);
#5960=LINE('',#5930,#5950);
#5970=EDGE_CURVE('',#860,#2240,#5960,.T.);
#5980=ORIENTED_EDGE('',*,*,#5970,.T.);
#5990=ORIENTED_EDGE('',*,*,#870,.T.);
#6000=EDGE_LOOP('',(#5990,#5980,#5920,#5910));
#6010=FACE_OUTER_BOUND('',#6000,.T.);
#6020=ADVANCED_FACE('',(#6010),#5900,.T.);
#6030=CARTESIAN_POINT('',(1.39668678867256,-2.298523,0.));
#6040=DIRECTION('',(-0.,-1.,-0.));
#6050=DIRECTION('',(-1.,0.,0.));
#6060=AXIS2_PLACEMENT_3D('',#6030,#6040,#6050);
#6070=PLANE('',#6060);
#6080=ORIENTED_EDGE('',*,*,#5970,.F.);
#6090=ORIENTED_EDGE('',*,*,#2250,.F.);
#6100=ORIENTED_EDGE('',*,*,#4250,.T.);
#6110=ORIENTED_EDGE('',*,*,#950,.T.);
#6120=EDGE_LOOP('',(#6110,#6100,#6090,#6080));
#6130=FACE_OUTER_BOUND('',#6120,.T.);
#6140=ADVANCED_FACE('',(#6130),#6070,.T.);
#6150=CLOSED_SHELL('',(#3300,#3470,#3640,#3810,#3980,#4150,#4320,#4490,
#4660,#4830,#5000,#5170,#5340,#5510,#5680,#5850,#6020,#6140,#3080,#1540)
);
#6160=MANIFOLD_SOLID_BREP('',#6150);
#6170=CARTESIAN_POINT('',(0.,0.,0.));
#6180=DIRECTION('',(0.,0.,1.));
#6190=DIRECTION('',(1.,0.,0.));
#6200=AXIS2_PLACEMENT_3D('',#6170,#6180,#6190);
#6210=APPLICATION_CONTEXT(' ');
#6220=APPLICATION_PROTOCOL_DEFINITION(' ','automotive_design',1998,#6210
);
#6230=PRODUCT_CONTEXT('',#6210,'mechanical');
#6240=PRODUCT_DEFINITION_CONTEXT('part definition',#6210,'design');
#6250=PRODUCT('Profilabdeckung-Nut-MMS-33_schwarz_33.0300_PX176206',
'Profilabdeckung-Nut-MMS-33_schwarz_33.0300_PX176206','',(#6230));
#6260=PRODUCT_RELATED_PRODUCT_CATEGORY('part',' ',(#6250));
#6270=PRODUCT_DEFINITION_FORMATION_WITH_SPECIFIED_SOURCE('','',#6250,
.BOUGHT.);
#6280=PRODUCT_DEFINITION('',' ',#6270,#6240);
#6290=PRODUCT_DEFINITION_SHAPE('','',#6280);
#6300=DIMENSIONAL_EXPONENTS(1.,0.,0.,0.,0.,0.,0.);
#6310=DIMENSIONAL_EXPONENTS(0.,0.,0.,0.,0.,0.,0.);
#6320=DIMENSIONAL_EXPONENTS(0.,0.,0.,0.,0.,0.,0.);
#6330=(LENGTH_UNIT() NAMED_UNIT(*) SI_UNIT(.MILLI.,.METRE.));
#6340=(NAMED_UNIT(*) PLANE_ANGLE_UNIT() SI_UNIT($,.RADIAN.));
#6350=(NAMED_UNIT(*) SI_UNIT($,.STERADIAN.) SOLID_ANGLE_UNIT());
#6360=(GEOMETRIC_REPRESENTATION_CONTEXT(3) 
GLOBAL_UNCERTAINTY_ASSIGNED_CONTEXT((#6370)) 
GLOBAL_UNIT_ASSIGNED_CONTEXT((#6330,#6340,#6350)) REPRESENTATION_CONTEXT
('',''));
#6370=UNCERTAINTY_MEASURE_WITH_UNIT(LENGTH_MEASURE(1.E-6),#6330,
'distance_accuracy_value','maximum gap value');
#6380=ADVANCED_BREP_SHAPE_REPRESENTATION('',(#6200,#6160),#6360);
#6390=SHAPE_DEFINITION_REPRESENTATION(#6290,#6380);
#6400=COLOUR_RGB('',0.0823529437184334,0.0862745121121407,
0.0980392247438431);
#6410=FILL_AREA_STYLE_COLOUR('',#6400);
#6420=FILL_AREA_STYLE('',(#6410));
#6430=SURFACE_STYLE_FILL_AREA(#6420);
#6440=SURFACE_SIDE_STYLE('',(#6430));
#6450=SURFACE_STYLE_USAGE(.BOTH.,#6440);
#6460=PRESENTATION_STYLE_ASSIGNMENT((#6450));
#6470=STYLED_ITEM('',(#6460),#6160);
#6480=DRAUGHTING_MODEL('',(#6470),#6360);
#6490=CARTESIAN_POINT('',(7.99649799999998,6.298523,0.));
#6500=DIRECTION('',(0.,0.,1.));
#6510=DIRECTION('',(1.,0.,0.));
#6520=AXIS2_PLACEMENT_3D('',#6490,#6500,#6510);
#6530=ITEM_DEFINED_TRANSFORMATION(
'Profilabdeckung-Nut-MMS-33_schwarz_33.0300_PX176206','',#6200,#6520);
#6540=APPLICATION_CONTEXT(' ');
#6550=APPLICATION_PROTOCOL_DEFINITION(' ','automotive_design',1998,#6540
);
#6560=PRODUCT_CONTEXT('',#6540,'mechanical');
#6570=PRODUCT_DEFINITION_CONTEXT('part definition',#6540,'design');
#6580=PRODUCT('Profilabdeckung-Nut-MMS-33_schwarz_33.0300_PX176206',
'Profilabdeckung-Nut-MMS-33_schwarz_33.0300_PX176206','',(#6560));
#6590=PRODUCT_RELATED_PRODUCT_CATEGORY('part',' ',(#6580));
#6600=PRODUCT_DEFINITION_FORMATION_WITH_SPECIFIED_SOURCE('','',#6580,
.BOUGHT.);
#6610=PRODUCT_DEFINITION('',' ',#6600,#6570);
#6620=PRODUCT_DEFINITION_SHAPE('','',#6610);
#6630=DIMENSIONAL_EXPONENTS(1.,0.,0.,0.,0.,0.,0.);
#6640=DIMENSIONAL_EXPONENTS(0.,0.,0.,0.,0.,0.,0.);
#6650=DIMENSIONAL_EXPONENTS(0.,0.,0.,0.,0.,0.,0.);
#6660=(LENGTH_UNIT() NAMED_UNIT(*) SI_UNIT(.MILLI.,.METRE.));
#6670=(NAMED_UNIT(*) PLANE_ANGLE_UNIT() SI_UNIT($,.RADIAN.));
#6680=(NAMED_UNIT(*) SI_UNIT($,.STERADIAN.) SOLID_ANGLE_UNIT());
#6690=(GEOMETRIC_REPRESENTATION_CONTEXT(3) 
GLOBAL_UNCERTAINTY_ASSIGNED_CONTEXT((#6700)) 
GLOBAL_UNIT_ASSIGNED_CONTEXT((#6660,#6670,#6680)) REPRESENTATION_CONTEXT
('',''));
#6700=UNCERTAINTY_MEASURE_WITH_UNIT(LENGTH_MEASURE(1.E-6),#6660,
'distance_accuracy_value','maximum gap value');
#6710=SHAPE_REPRESENTATION('',(#6200,#6520),#6690);
#6720=SHAPE_DEFINITION_REPRESENTATION(#6620,#6710);
#6730=(REPRESENTATION_RELATIONSHIP('','',#6380,#6710) 
REPRESENTATION_RELATIONSHIP_WITH_TRANSFORMATION(#6530) 
SHAPE_REPRESENTATION_RELATIONSHIP());
#6740=NEXT_ASSEMBLY_USAGE_OCCURRENCE('1','',
'Profilabdeckung-Nut-MMS-33_schwarz_33.0300_PX176206',#6610,#6280,'');
#6750=PRODUCT_DEFINITION_SHAPE('','',#6740);
#6760=CONTEXT_DEPENDENT_SHAPE_REPRESENTATION(#6730,#6750);
ENDSEC;
END-ISO-10303-21;
