ISO-10303-21;
HEADER;
FILE_DESCRIPTION(('Creo Elements/Direct Modeling STEP Export'),'2;1');
FILE_NAME(
'//KR-CAD2/PhoenixTemp/karl.letzgus/Konvertierung/33.0305_Abdeckkappe-MM
S-33_30x30x15.stp','2022-03-18T13:58:17',(''),(''),
'PTC Creo Elements/Direct Modeling STEP processor for AP214 (Solid Model
)',
'PTC Creo Elements/Direct Modeling 19.0C  15-Aug-2015 (C) Parametric Tec
hnology GmbH','');
FILE_SCHEMA(('AUTOMOTIVE_DESIGN { 1 0 10303 214 1 1 1 1 }'));
ENDSEC;
DATA;
#10=CARTESIAN_POINT('',(0.,0.,5.));
#20=DIRECTION('',(0.,0.,1.));
#30=DIRECTION('',(1.,0.,0.));
#40=AXIS2_PLACEMENT_3D('',#10,#20,#30);
#50=PLANE('',#40);
#60=CARTESIAN_POINT('',(0.,1.5,5.));
#70=DIRECTION('',(1.,0.,0.));
#80=VECTOR('',#70,1.);
#90=LINE('',#60,#80);
#100=CARTESIAN_POINT('',(1.5,1.5,5.));
#110=VERTEX_POINT('',#100);
#120=CARTESIAN_POINT('',(28.5,1.5,5.));
#130=VERTEX_POINT('',#120);
#140=EDGE_CURVE('',#110,#130,#90,.T.);
#150=ORIENTED_EDGE('',*,*,#140,.T.);
#160=CARTESIAN_POINT('',(1.5,0.,5.));
#170=DIRECTION('',(0.,-1.,0.));
#180=VECTOR('',#170,1.);
#190=LINE('',#160,#180);
#200=CARTESIAN_POINT('',(1.5,28.5,5.));
#210=VERTEX_POINT('',#200);
#220=EDGE_CURVE('',#210,#110,#190,.T.);
#230=ORIENTED_EDGE('',*,*,#220,.T.);
#240=CARTESIAN_POINT('',(0.,28.5,5.));
#250=DIRECTION('',(-1.,0.,0.));
#260=VECTOR('',#250,1.);
#270=LINE('',#240,#260);
#280=CARTESIAN_POINT('',(28.5,28.5,5.));
#290=VERTEX_POINT('',#280);
#300=EDGE_CURVE('',#290,#210,#270,.T.);
#310=ORIENTED_EDGE('',*,*,#300,.T.);
#320=CARTESIAN_POINT('',(28.5,0.,5.));
#330=DIRECTION('',(0.,1.,0.));
#340=VECTOR('',#330,1.);
#350=LINE('',#320,#340);
#360=EDGE_CURVE('',#130,#290,#350,.T.);
#370=ORIENTED_EDGE('',*,*,#360,.T.);
#380=EDGE_LOOP('',(#370,#310,#230,#150));
#390=FACE_OUTER_BOUND('',#380,.T.);
#400=ADVANCED_FACE('',(#390),#50,.T.);
#410=CARTESIAN_POINT('',(0.,28.5,3.5));
#420=DIRECTION('',(-1.,0.,0.));
#430=DIRECTION('',(0.,1.,0.));
#440=AXIS2_PLACEMENT_3D('',#410,#420,#430);
#450=CYLINDRICAL_SURFACE('',#440,1.5);
#460=CARTESIAN_POINT('',(1.5,28.5,3.5));
#470=DIRECTION('',(-0.707106781186548,-0.707106781186548,0.));
#480=DIRECTION('',(0.707106781186548,-0.707106781186548,0.));
#490=AXIS2_PLACEMENT_3D('',#460,#470,#480);
#500=ELLIPSE('',#490,2.12132034355964,1.5);
#510=CARTESIAN_POINT('',(0.439339828220179,29.5606601717798,
4.56066017177982));
#520=VERTEX_POINT('',#510);
#530=EDGE_CURVE('',#210,#520,#500,.T.);
#540=ORIENTED_EDGE('',*,*,#530,.F.);
#550=CARTESIAN_POINT('',(1.5,28.5,3.5));
#560=DIRECTION('',(-0.707106781186548,0.,-0.707106781186548));
#570=DIRECTION('',(0.707106781186548,0.,-0.707106781186548));
#580=AXIS2_PLACEMENT_3D('',#550,#560,#570);
#590=ELLIPSE('',#580,2.12132034355964,1.5);
#600=CARTESIAN_POINT('',(1.5,30.,3.5));
#610=VERTEX_POINT('',#600);
#620=EDGE_CURVE('',#520,#610,#590,.T.);
#630=ORIENTED_EDGE('',*,*,#620,.F.);
#640=CARTESIAN_POINT('',(0.,30.,3.5));
#650=DIRECTION('',(-1.,0.,0.));
#660=VECTOR('',#650,1.);
#670=LINE('',#640,#660);
#680=CARTESIAN_POINT('',(28.5,30.,3.5));
#690=VERTEX_POINT('',#680);
#700=EDGE_CURVE('',#690,#610,#670,.T.);
#710=ORIENTED_EDGE('',*,*,#700,.T.);
#720=CARTESIAN_POINT('',(28.5,28.5,3.5));
#730=DIRECTION('',(-0.707106781186548,0.,0.707106781186548));
#740=DIRECTION('',(0.707106781186548,0.,0.707106781186548));
#750=AXIS2_PLACEMENT_3D('',#720,#730,#740);
#760=ELLIPSE('',#750,2.12132034355964,1.5);
#770=CARTESIAN_POINT('',(29.5606601717798,29.5606601717798,
4.56066017177982));
#780=VERTEX_POINT('',#770);
#790=EDGE_CURVE('',#780,#690,#760,.T.);
#800=ORIENTED_EDGE('',*,*,#790,.T.);
#810=CARTESIAN_POINT('',(28.5,28.5,3.5));
#820=DIRECTION('',(-0.707106781186548,0.707106781186548,0.));
#830=DIRECTION('',(0.707106781186548,0.707106781186548,0.));
#840=AXIS2_PLACEMENT_3D('',#810,#820,#830);
#850=ELLIPSE('',#840,2.12132034355964,1.5);
#860=EDGE_CURVE('',#290,#780,#850,.T.);
#870=ORIENTED_EDGE('',*,*,#860,.T.);
#880=ORIENTED_EDGE('',*,*,#300,.F.);
#890=EDGE_LOOP('',(#880,#870,#800,#710,#630,#540));
#900=FACE_OUTER_BOUND('',#890,.T.);
#910=ADVANCED_FACE('',(#900),#450,.T.);
#920=CARTESIAN_POINT('',(1.5,0.,3.5));
#930=DIRECTION('',(0.,-1.,0.));
#940=DIRECTION('',(-1.,0.,0.));
#950=AXIS2_PLACEMENT_3D('',#920,#930,#940);
#960=CYLINDRICAL_SURFACE('',#950,1.5);
#970=CARTESIAN_POINT('',(1.5,1.5,3.5));
#980=DIRECTION('',(0.707106781186548,-0.707106781186548,0.));
#990=DIRECTION('',(0.707106781186548,0.707106781186548,0.));
#1000=AXIS2_PLACEMENT_3D('',#970,#980,#990);
#1010=ELLIPSE('',#1000,2.12132034355964,1.5);
#1020=CARTESIAN_POINT('',(0.439339828220179,0.439339828220179,
4.56066017177982));
#1030=VERTEX_POINT('',#1020);
#1040=EDGE_CURVE('',#110,#1030,#1010,.T.);
#1050=ORIENTED_EDGE('',*,*,#1040,.F.);
#1060=CARTESIAN_POINT('',(1.5,1.5,3.5));
#1070=DIRECTION('',(0.,0.707106781186548,0.707106781186548));
#1080=DIRECTION('',(0.,-0.707106781186548,0.707106781186548));
#1090=AXIS2_PLACEMENT_3D('',#1060,#1070,#1080);
#1100=ELLIPSE('',#1090,2.12132034355964,1.5);
#1110=CARTESIAN_POINT('',(0.,1.5,3.5));
#1120=VERTEX_POINT('',#1110);
#1130=EDGE_CURVE('',#1120,#1030,#1100,.T.);
#1140=ORIENTED_EDGE('',*,*,#1130,.T.);
#1150=CARTESIAN_POINT('',(0.,0.,3.5));
#1160=DIRECTION('',(0.,-1.,0.));
#1170=VECTOR('',#1160,1.);
#1180=LINE('',#1150,#1170);
#1190=CARTESIAN_POINT('',(0.,28.5,3.5));
#1200=VERTEX_POINT('',#1190);
#1210=EDGE_CURVE('',#1200,#1120,#1180,.T.);
#1220=ORIENTED_EDGE('',*,*,#1210,.T.);
#1230=CARTESIAN_POINT('',(1.5,28.5,3.5));
#1240=DIRECTION('',(0.,0.707106781186548,-0.707106781186548));
#1250=DIRECTION('',(0.,-0.707106781186548,-0.707106781186548));
#1260=AXIS2_PLACEMENT_3D('',#1230,#1240,#1250);
#1270=ELLIPSE('',#1260,2.12132034355964,1.5);
#1280=EDGE_CURVE('',#1200,#520,#1270,.T.);
#1290=ORIENTED_EDGE('',*,*,#1280,.F.);
#1300=ORIENTED_EDGE('',*,*,#530,.T.);
#1310=ORIENTED_EDGE('',*,*,#220,.F.);
#1320=EDGE_LOOP('',(#1310,#1300,#1290,#1220,#1140,#1050));
#1330=FACE_OUTER_BOUND('',#1320,.T.);
#1340=ADVANCED_FACE('',(#1330),#960,.T.);
#1350=CARTESIAN_POINT('',(0.,1.5,3.5));
#1360=DIRECTION('',(1.,0.,0.));
#1370=DIRECTION('',(0.,-1.,0.));
#1380=AXIS2_PLACEMENT_3D('',#1350,#1360,#1370);
#1390=CYLINDRICAL_SURFACE('',#1380,1.5);
#1400=CARTESIAN_POINT('',(28.5,1.5,3.5));
#1410=DIRECTION('',(0.707106781186548,0.707106781186548,0.));
#1420=DIRECTION('',(-0.707106781186548,0.707106781186548,0.));
#1430=AXIS2_PLACEMENT_3D('',#1400,#1410,#1420);
#1440=ELLIPSE('',#1430,2.12132034355964,1.5);
#1450=CARTESIAN_POINT('',(29.5606601717798,0.439339828220179,
4.56066017177982));
#1460=VERTEX_POINT('',#1450);
#1470=EDGE_CURVE('',#130,#1460,#1440,.T.);
#1480=ORIENTED_EDGE('',*,*,#1470,.F.);
#1490=CARTESIAN_POINT('',(28.5,1.5,3.5));
#1500=DIRECTION('',(-0.707106781186548,0.,0.707106781186548));
#1510=DIRECTION('',(0.707106781186548,0.,0.707106781186548));
#1520=AXIS2_PLACEMENT_3D('',#1490,#1500,#1510);
#1530=ELLIPSE('',#1520,2.12132034355964,1.5);
#1540=CARTESIAN_POINT('',(28.5,0.,3.5));
#1550=VERTEX_POINT('',#1540);
#1560=EDGE_CURVE('',#1550,#1460,#1530,.T.);
#1570=ORIENTED_EDGE('',*,*,#1560,.T.);
#1580=CARTESIAN_POINT('',(0.,0.,3.5));
#1590=DIRECTION('',(1.,0.,0.));
#1600=VECTOR('',#1590,1.);
#1610=LINE('',#1580,#1600);
#1620=CARTESIAN_POINT('',(1.5,0.,3.5));
#1630=VERTEX_POINT('',#1620);
#1640=EDGE_CURVE('',#1630,#1550,#1610,.T.);
#1650=ORIENTED_EDGE('',*,*,#1640,.T.);
#1660=CARTESIAN_POINT('',(1.5,1.5,3.5));
#1670=DIRECTION('',(0.707106781186548,0.,0.707106781186548));
#1680=DIRECTION('',(-0.707106781186548,0.,0.707106781186548));
#1690=AXIS2_PLACEMENT_3D('',#1660,#1670,#1680);
#1700=ELLIPSE('',#1690,2.12132034355964,1.5);
#1710=EDGE_CURVE('',#1030,#1630,#1700,.T.);
#1720=ORIENTED_EDGE('',*,*,#1710,.T.);
#1730=ORIENTED_EDGE('',*,*,#1040,.T.);
#1740=ORIENTED_EDGE('',*,*,#140,.F.);
#1750=EDGE_LOOP('',(#1740,#1730,#1720,#1650,#1570,#1480));
#1760=FACE_OUTER_BOUND('',#1750,.T.);
#1770=ADVANCED_FACE('',(#1760),#1390,.T.);
#1780=CARTESIAN_POINT('',(28.5,0.,3.5));
#1790=DIRECTION('',(0.,1.,0.));
#1800=DIRECTION('',(1.,0.,0.));
#1810=AXIS2_PLACEMENT_3D('',#1780,#1790,#1800);
#1820=CYLINDRICAL_SURFACE('',#1810,1.5);
#1830=ORIENTED_EDGE('',*,*,#860,.F.);
#1840=CARTESIAN_POINT('',(28.5,28.5,3.5));
#1850=DIRECTION('',(0.,-0.707106781186548,0.707106781186548));
#1860=DIRECTION('',(0.,0.707106781186548,0.707106781186548));
#1870=AXIS2_PLACEMENT_3D('',#1840,#1850,#1860);
#1880=ELLIPSE('',#1870,2.12132034355964,1.5);
#1890=CARTESIAN_POINT('',(30.,28.5,3.5));
#1900=VERTEX_POINT('',#1890);
#1910=EDGE_CURVE('',#1900,#780,#1880,.T.);
#1920=ORIENTED_EDGE('',*,*,#1910,.T.);
#1930=CARTESIAN_POINT('',(30.,0.,3.5));
#1940=DIRECTION('',(0.,1.,0.));
#1950=VECTOR('',#1940,1.);
#1960=LINE('',#1930,#1950);
#1970=CARTESIAN_POINT('',(30.,1.5,3.5));
#1980=VERTEX_POINT('',#1970);
#1990=EDGE_CURVE('',#1980,#1900,#1960,.T.);
#2000=ORIENTED_EDGE('',*,*,#1990,.T.);
#2010=CARTESIAN_POINT('',(28.5,1.5,3.5));
#2020=DIRECTION('',(0.,0.707106781186548,0.707106781186548));
#2030=DIRECTION('',(0.,-0.707106781186548,0.707106781186548));
#2040=AXIS2_PLACEMENT_3D('',#2010,#2020,#2030);
#2050=ELLIPSE('',#2040,2.12132034355964,1.5);
#2060=EDGE_CURVE('',#1460,#1980,#2050,.T.);
#2070=ORIENTED_EDGE('',*,*,#2060,.T.);
#2080=ORIENTED_EDGE('',*,*,#1470,.T.);
#2090=ORIENTED_EDGE('',*,*,#360,.F.);
#2100=EDGE_LOOP('',(#2090,#2080,#2070,#2000,#1920,#1830));
#2110=FACE_OUTER_BOUND('',#2100,.T.);
#2120=ADVANCED_FACE('',(#2110),#1820,.T.);
#2130=CARTESIAN_POINT('',(30.,30.,0.));
#2140=DIRECTION('',(1.,0.,0.));
#2150=DIRECTION('',(0.,-1.,0.));
#2160=AXIS2_PLACEMENT_3D('',#2130,#2140,#2150);
#2170=PLANE('',#2160);
#2180=CARTESIAN_POINT('',(30.,0.,0.));
#2190=DIRECTION('',(0.,-1.,0.));
#2200=VECTOR('',#2190,1.);
#2210=LINE('',#2180,#2200);
#2220=CARTESIAN_POINT('',(30.,28.5,0.));
#2230=VERTEX_POINT('',#2220);
#2240=CARTESIAN_POINT('',(30.,1.5,0.));
#2250=VERTEX_POINT('',#2240);
#2260=EDGE_CURVE('',#2230,#2250,#2210,.T.);
#2270=ORIENTED_EDGE('',*,*,#2260,.F.);
#2280=CARTESIAN_POINT('',(30.,1.5,0.));
#2290=DIRECTION('',(0.,0.,1.));
#2300=VECTOR('',#2290,1.);
#2310=LINE('',#2280,#2300);
#2320=EDGE_CURVE('',#2250,#1980,#2310,.T.);
#2330=ORIENTED_EDGE('',*,*,#2320,.F.);
#2340=ORIENTED_EDGE('',*,*,#1990,.F.);
#2350=CARTESIAN_POINT('',(30.,28.5,0.));
#2360=DIRECTION('',(0.,0.,1.));
#2370=VECTOR('',#2360,1.);
#2380=LINE('',#2350,#2370);
#2390=EDGE_CURVE('',#2230,#1900,#2380,.T.);
#2400=ORIENTED_EDGE('',*,*,#2390,.T.);
#2410=EDGE_LOOP('',(#2400,#2340,#2330,#2270));
#2420=FACE_OUTER_BOUND('',#2410,.T.);
#2430=ADVANCED_FACE('',(#2420),#2170,.T.);
#2440=CARTESIAN_POINT('',(0.,30.,0.));
#2450=DIRECTION('',(-0.,1.,0.));
#2460=DIRECTION('',(1.,0.,0.));
#2470=AXIS2_PLACEMENT_3D('',#2440,#2450,#2460);
#2480=PLANE('',#2470);
#2490=CARTESIAN_POINT('',(28.5,30.,0.));
#2500=DIRECTION('',(0.,0.,1.));
#2510=VECTOR('',#2500,1.);
#2520=LINE('',#2490,#2510);
#2530=CARTESIAN_POINT('',(28.5,30.,0.));
#2540=VERTEX_POINT('',#2530);
#2550=EDGE_CURVE('',#2540,#690,#2520,.T.);
#2560=ORIENTED_EDGE('',*,*,#2550,.F.);
#2570=ORIENTED_EDGE('',*,*,#700,.F.);
#2580=CARTESIAN_POINT('',(1.5,30.,0.));
#2590=DIRECTION('',(0.,0.,1.));
#2600=VECTOR('',#2590,1.);
#2610=LINE('',#2580,#2600);
#2620=CARTESIAN_POINT('',(1.5,30.,0.));
#2630=VERTEX_POINT('',#2620);
#2640=EDGE_CURVE('',#2630,#610,#2610,.T.);
#2650=ORIENTED_EDGE('',*,*,#2640,.T.);
#2660=CARTESIAN_POINT('',(0.,30.,0.));
#2670=DIRECTION('',(-1.,0.,0.));
#2680=VECTOR('',#2670,1.);
#2690=LINE('',#2660,#2680);
#2700=EDGE_CURVE('',#2540,#2630,#2690,.T.);
#2710=ORIENTED_EDGE('',*,*,#2700,.T.);
#2720=EDGE_LOOP('',(#2710,#2650,#2570,#2560));
#2730=FACE_OUTER_BOUND('',#2720,.T.);
#2740=ADVANCED_FACE('',(#2730),#2480,.T.);
#2750=CARTESIAN_POINT('',(30.,0.,0.));
#2760=DIRECTION('',(-0.,-1.,-0.));
#2770=DIRECTION('',(-1.,0.,0.));
#2780=AXIS2_PLACEMENT_3D('',#2750,#2760,#2770);
#2790=PLANE('',#2780);
#2800=CARTESIAN_POINT('',(0.,0.,0.));
#2810=DIRECTION('',(1.,0.,0.));
#2820=VECTOR('',#2810,1.);
#2830=LINE('',#2800,#2820);
#2840=CARTESIAN_POINT('',(1.5,0.,0.));
#2850=VERTEX_POINT('',#2840);
#2860=CARTESIAN_POINT('',(28.5,0.,0.));
#2870=VERTEX_POINT('',#2860);
#2880=EDGE_CURVE('',#2850,#2870,#2830,.T.);
#2890=ORIENTED_EDGE('',*,*,#2880,.T.);
#2900=CARTESIAN_POINT('',(1.5,0.,0.));
#2910=DIRECTION('',(0.,0.,1.));
#2920=VECTOR('',#2910,1.);
#2930=LINE('',#2900,#2920);
#2940=EDGE_CURVE('',#2850,#1630,#2930,.T.);
#2950=ORIENTED_EDGE('',*,*,#2940,.F.);
#2960=ORIENTED_EDGE('',*,*,#1640,.F.);
#2970=CARTESIAN_POINT('',(28.5,0.,0.));
#2980=DIRECTION('',(0.,0.,1.));
#2990=VECTOR('',#2980,1.);
#3000=LINE('',#2970,#2990);
#3010=EDGE_CURVE('',#2870,#1550,#3000,.T.);
#3020=ORIENTED_EDGE('',*,*,#3010,.T.);
#3030=EDGE_LOOP('',(#3020,#2960,#2950,#2890));
#3040=FACE_OUTER_BOUND('',#3030,.T.);
#3050=ADVANCED_FACE('',(#3040),#2790,.T.);
#3060=CARTESIAN_POINT('',(0.,0.,0.));
#3070=DIRECTION('',(-1.,0.,0.));
#3080=DIRECTION('',(0.,1.,0.));
#3090=AXIS2_PLACEMENT_3D('',#3060,#3070,#3080);
#3100=PLANE('',#3090);
#3110=CARTESIAN_POINT('',(0.,0.,0.));
#3120=DIRECTION('',(0.,1.,0.));
#3130=VECTOR('',#3120,1.);
#3140=LINE('',#3110,#3130);
#3150=CARTESIAN_POINT('',(0.,1.5,0.));
#3160=VERTEX_POINT('',#3150);
#3170=CARTESIAN_POINT('',(0.,28.5,0.));
#3180=VERTEX_POINT('',#3170);
#3190=EDGE_CURVE('',#3160,#3180,#3140,.T.);
#3200=ORIENTED_EDGE('',*,*,#3190,.F.);
#3210=CARTESIAN_POINT('',(0.,28.5,0.));
#3220=DIRECTION('',(0.,0.,1.));
#3230=VECTOR('',#3220,1.);
#3240=LINE('',#3210,#3230);
#3250=EDGE_CURVE('',#3180,#1200,#3240,.T.);
#3260=ORIENTED_EDGE('',*,*,#3250,.F.);
#3270=ORIENTED_EDGE('',*,*,#1210,.F.);
#3280=CARTESIAN_POINT('',(0.,1.5,0.));
#3290=DIRECTION('',(0.,0.,1.));
#3300=VECTOR('',#3290,1.);
#3310=LINE('',#3280,#3300);
#3320=EDGE_CURVE('',#3160,#1120,#3310,.T.);
#3330=ORIENTED_EDGE('',*,*,#3320,.T.);
#3340=EDGE_LOOP('',(#3330,#3270,#3260,#3200));
#3350=FACE_OUTER_BOUND('',#3340,.T.);
#3360=ADVANCED_FACE('',(#3350),#3100,.T.);
#3370=CARTESIAN_POINT('',(0.,33.0000024,0.));
#3380=DIRECTION('',(0.,0.,1.));
#3390=DIRECTION('',(1.,0.,0.));
#3400=AXIS2_PLACEMENT_3D('',#3370,#3380,#3390);
#3410=PLANE('',#3400);
#3420=CARTESIAN_POINT('',(28.5,28.5,0.));
#3430=DIRECTION('',(0.,0.,1.));
#3440=DIRECTION('',(1.,0.,0.));
#3450=AXIS2_PLACEMENT_3D('',#3420,#3430,#3440);
#3460=CIRCLE('',#3450,1.5);
#3470=EDGE_CURVE('',#2230,#2540,#3460,.T.);
#3480=ORIENTED_EDGE('',*,*,#3470,.F.);
#3490=ORIENTED_EDGE('',*,*,#2700,.F.);
#3500=CARTESIAN_POINT('',(1.5,28.5,0.));
#3510=DIRECTION('',(0.,0.,-1.));
#3520=DIRECTION('',(-1.,0.,0.));
#3530=AXIS2_PLACEMENT_3D('',#3500,#3510,#3520);
#3540=CIRCLE('',#3530,1.5);
#3550=EDGE_CURVE('',#3180,#2630,#3540,.T.);
#3560=ORIENTED_EDGE('',*,*,#3550,.T.);
#3570=ORIENTED_EDGE('',*,*,#3190,.T.);
#3580=CARTESIAN_POINT('',(1.5,1.5,0.));
#3590=DIRECTION('',(0.,0.,1.));
#3600=DIRECTION('',(1.,0.,0.));
#3610=AXIS2_PLACEMENT_3D('',#3580,#3590,#3600);
#3620=CIRCLE('',#3610,1.5);
#3630=EDGE_CURVE('',#3160,#2850,#3620,.T.);
#3640=ORIENTED_EDGE('',*,*,#3630,.F.);
#3650=ORIENTED_EDGE('',*,*,#2880,.F.);
#3660=CARTESIAN_POINT('',(28.5,1.5,0.));
#3670=DIRECTION('',(0.,0.,1.));
#3680=DIRECTION('',(1.,0.,0.));
#3690=AXIS2_PLACEMENT_3D('',#3660,#3670,#3680);
#3700=CIRCLE('',#3690,1.5);
#3710=EDGE_CURVE('',#2870,#2250,#3700,.T.);
#3720=ORIENTED_EDGE('',*,*,#3710,.F.);
#3730=ORIENTED_EDGE('',*,*,#2260,.T.);
#3740=EDGE_LOOP('',(#3730,#3720,#3650,#3640,#3570,#3560,#3490,#3480));
#3750=FACE_OUTER_BOUND('',#3740,.T.);
#3760=CARTESIAN_POINT('',(0.,21.,0.));
#3770=DIRECTION('',(-1.,0.,0.));
#3780=VECTOR('',#3770,1.);
#3790=LINE('',#3760,#3780);
#3800=CARTESIAN_POINT('',(21.,21.,0.));
#3810=VERTEX_POINT('',#3800);
#3820=CARTESIAN_POINT('',(9.,21.,0.));
#3830=VERTEX_POINT('',#3820);
#3840=EDGE_CURVE('',#3810,#3830,#3790,.T.);
#3850=ORIENTED_EDGE('',*,*,#3840,.T.);
#3860=CARTESIAN_POINT('',(21.,0.,0.));
#3870=DIRECTION('',(0.,1.,0.));
#3880=VECTOR('',#3870,1.);
#3890=LINE('',#3860,#3880);
#3900=CARTESIAN_POINT('',(21.,9.,0.));
#3910=VERTEX_POINT('',#3900);
#3920=EDGE_CURVE('',#3910,#3810,#3890,.T.);
#3930=ORIENTED_EDGE('',*,*,#3920,.T.);
#3940=CARTESIAN_POINT('',(0.,9.,0.));
#3950=DIRECTION('',(1.,0.,0.));
#3960=VECTOR('',#3950,1.);
#3970=LINE('',#3940,#3960);
#3980=CARTESIAN_POINT('',(9.,9.,0.));
#3990=VERTEX_POINT('',#3980);
#4000=EDGE_CURVE('',#3990,#3910,#3970,.T.);
#4010=ORIENTED_EDGE('',*,*,#4000,.T.);
#4020=CARTESIAN_POINT('',(9.,0.,0.));
#4030=DIRECTION('',(0.,-1.,0.));
#4040=VECTOR('',#4030,1.);
#4050=LINE('',#4020,#4040);
#4060=EDGE_CURVE('',#3830,#3990,#4050,.T.);
#4070=ORIENTED_EDGE('',*,*,#4060,.T.);
#4080=EDGE_LOOP('',(#4070,#4010,#3930,#3850));
#4090=FACE_BOUND('',#4080,.T.);
#4100=ADVANCED_FACE('',(#3750,#4090),#3410,.F.);
#4110=CARTESIAN_POINT('',(28.5,28.5,0.));
#4120=DIRECTION('',(0.,0.,1.));
#4130=DIRECTION('',(1.,0.,0.));
#4140=AXIS2_PLACEMENT_3D('',#4110,#4120,#4130);
#4150=CYLINDRICAL_SURFACE('',#4140,1.5);
#4160=ORIENTED_EDGE('',*,*,#1910,.F.);
#4170=ORIENTED_EDGE('',*,*,#790,.F.);
#4180=ORIENTED_EDGE('',*,*,#2550,.T.);
#4190=ORIENTED_EDGE('',*,*,#3470,.T.);
#4200=ORIENTED_EDGE('',*,*,#2390,.F.);
#4210=EDGE_LOOP('',(#4200,#4190,#4180,#4170,#4160));
#4220=FACE_OUTER_BOUND('',#4210,.T.);
#4230=ADVANCED_FACE('',(#4220),#4150,.T.);
#4240=CARTESIAN_POINT('',(28.5,1.5,0.));
#4250=DIRECTION('',(0.,0.,1.));
#4260=DIRECTION('',(1.,0.,0.));
#4270=AXIS2_PLACEMENT_3D('',#4240,#4250,#4260);
#4280=CYLINDRICAL_SURFACE('',#4270,1.5);
#4290=ORIENTED_EDGE('',*,*,#1560,.F.);
#4300=ORIENTED_EDGE('',*,*,#2060,.F.);
#4310=ORIENTED_EDGE('',*,*,#2320,.T.);
#4320=ORIENTED_EDGE('',*,*,#3710,.T.);
#4330=ORIENTED_EDGE('',*,*,#3010,.F.);
#4340=EDGE_LOOP('',(#4330,#4320,#4310,#4300,#4290));
#4350=FACE_OUTER_BOUND('',#4340,.T.);
#4360=ADVANCED_FACE('',(#4350),#4280,.T.);
#4370=CARTESIAN_POINT('',(1.5,1.5,0.));
#4380=DIRECTION('',(0.,0.,1.));
#4390=DIRECTION('',(1.,0.,0.));
#4400=AXIS2_PLACEMENT_3D('',#4370,#4380,#4390);
#4410=CYLINDRICAL_SURFACE('',#4400,1.5);
#4420=ORIENTED_EDGE('',*,*,#1130,.F.);
#4430=ORIENTED_EDGE('',*,*,#1710,.F.);
#4440=ORIENTED_EDGE('',*,*,#2940,.T.);
#4450=ORIENTED_EDGE('',*,*,#3630,.T.);
#4460=ORIENTED_EDGE('',*,*,#3320,.F.);
#4470=EDGE_LOOP('',(#4460,#4450,#4440,#4430,#4420));
#4480=FACE_OUTER_BOUND('',#4470,.T.);
#4490=ADVANCED_FACE('',(#4480),#4410,.T.);
#4500=CARTESIAN_POINT('',(1.5,28.5,0.));
#4510=DIRECTION('',(0.,0.,-1.));
#4520=DIRECTION('',(-1.,0.,0.));
#4530=AXIS2_PLACEMENT_3D('',#4500,#4510,#4520);
#4540=CYLINDRICAL_SURFACE('',#4530,1.5);
#4550=ORIENTED_EDGE('',*,*,#3550,.F.);
#4560=ORIENTED_EDGE('',*,*,#2640,.F.);
#4570=ORIENTED_EDGE('',*,*,#620,.T.);
#4580=ORIENTED_EDGE('',*,*,#1280,.T.);
#4590=ORIENTED_EDGE('',*,*,#3250,.T.);
#4600=EDGE_LOOP('',(#4590,#4580,#4570,#4560,#4550));
#4610=FACE_OUTER_BOUND('',#4600,.T.);
#4620=ADVANCED_FACE('',(#4610),#4540,.T.);
#4630=CARTESIAN_POINT('',(0.,19.25,0.));
#4640=DIRECTION('',(1.,0.,0.));
#4650=VECTOR('',#4640,1.);
#4660=LINE('',#4630,#4650);
#4670=CARTESIAN_POINT('',(10.75,19.25,0.));
#4680=VERTEX_POINT('',#4670);
#4690=CARTESIAN_POINT('',(19.25,19.25,0.));
#4700=VERTEX_POINT('',#4690);
#4710=EDGE_CURVE('',#4680,#4700,#4660,.T.);
#4720=ORIENTED_EDGE('',*,*,#4710,.T.);
#4730=CARTESIAN_POINT('',(10.75,0.,0.));
#4740=DIRECTION('',(0.,1.,0.));
#4750=VECTOR('',#4740,1.);
#4760=LINE('',#4730,#4750);
#4770=CARTESIAN_POINT('',(10.75,10.75,0.));
#4780=VERTEX_POINT('',#4770);
#4790=EDGE_CURVE('',#4780,#4680,#4760,.T.);
#4800=ORIENTED_EDGE('',*,*,#4790,.T.);
#4810=CARTESIAN_POINT('',(0.,10.75,0.));
#4820=DIRECTION('',(-1.,0.,0.));
#4830=VECTOR('',#4820,1.);
#4840=LINE('',#4810,#4830);
#4850=CARTESIAN_POINT('',(19.25,10.75,0.));
#4860=VERTEX_POINT('',#4850);
#4870=EDGE_CURVE('',#4860,#4780,#4840,.T.);
#4880=ORIENTED_EDGE('',*,*,#4870,.T.);
#4890=CARTESIAN_POINT('',(19.25,0.,0.));
#4900=DIRECTION('',(0.,-1.,0.));
#4910=VECTOR('',#4900,1.);
#4920=LINE('',#4890,#4910);
#4930=EDGE_CURVE('',#4700,#4860,#4920,.T.);
#4940=ORIENTED_EDGE('',*,*,#4930,.T.);
#4950=EDGE_LOOP('',(#4940,#4880,#4800,#4720));
#4960=FACE_OUTER_BOUND('',#4950,.T.);
#4970=ADVANCED_FACE('',(#4960),#3410,.F.);
#4980=CARTESIAN_POINT('',(15.,15.,-10.));
#4990=DIRECTION('',(0.,0.,-1.));
#5000=DIRECTION('',(0.,1.,0.));
#5010=AXIS2_PLACEMENT_3D('',#4980,#4990,#5000);
#5020=PLANE('',#5010);
#5030=CARTESIAN_POINT('',(9.,9.,-10.));
#5040=DIRECTION('',(1.,0.,0.));
#5050=VECTOR('',#5040,1.);
#5060=LINE('',#5030,#5050);
#5070=CARTESIAN_POINT('',(9.,9.,-10.));
#5080=VERTEX_POINT('',#5070);
#5090=CARTESIAN_POINT('',(21.,9.,-10.));
#5100=VERTEX_POINT('',#5090);
#5110=EDGE_CURVE('',#5080,#5100,#5060,.T.);
#5120=ORIENTED_EDGE('',*,*,#5110,.F.);
#5130=CARTESIAN_POINT('',(21.,9.,-10.));
#5140=DIRECTION('',(0.,1.,0.));
#5150=VECTOR('',#5140,1.);
#5160=LINE('',#5130,#5150);
#5170=CARTESIAN_POINT('',(21.,21.,-10.));
#5180=VERTEX_POINT('',#5170);
#5190=EDGE_CURVE('',#5100,#5180,#5160,.T.);
#5200=ORIENTED_EDGE('',*,*,#5190,.F.);
#5210=CARTESIAN_POINT('',(21.,21.,-10.));
#5220=DIRECTION('',(-1.,0.,0.));
#5230=VECTOR('',#5220,1.);
#5240=LINE('',#5210,#5230);
#5250=CARTESIAN_POINT('',(9.,21.,-10.));
#5260=VERTEX_POINT('',#5250);
#5270=EDGE_CURVE('',#5180,#5260,#5240,.T.);
#5280=ORIENTED_EDGE('',*,*,#5270,.F.);
#5290=CARTESIAN_POINT('',(9.,21.,-10.));
#5300=DIRECTION('',(0.,-1.,0.));
#5310=VECTOR('',#5300,1.);
#5320=LINE('',#5290,#5310);
#5330=EDGE_CURVE('',#5260,#5080,#5320,.T.);
#5340=ORIENTED_EDGE('',*,*,#5330,.F.);
#5350=EDGE_LOOP('',(#5340,#5280,#5200,#5120));
#5360=FACE_OUTER_BOUND('',#5350,.T.);
#5370=CARTESIAN_POINT('',(19.25,19.25,-10.));
#5380=DIRECTION('',(-1.,0.,0.));
#5390=VECTOR('',#5380,1.);
#5400=LINE('',#5370,#5390);
#5410=CARTESIAN_POINT('',(19.25,19.25,-10.));
#5420=VERTEX_POINT('',#5410);
#5430=CARTESIAN_POINT('',(10.75,19.25,-10.));
#5440=VERTEX_POINT('',#5430);
#5450=EDGE_CURVE('',#5420,#5440,#5400,.T.);
#5460=ORIENTED_EDGE('',*,*,#5450,.T.);
#5470=CARTESIAN_POINT('',(19.25,10.75,-10.));
#5480=DIRECTION('',(0.,1.,0.));
#5490=VECTOR('',#5480,1.);
#5500=LINE('',#5470,#5490);
#5510=CARTESIAN_POINT('',(19.25,10.75,-10.));
#5520=VERTEX_POINT('',#5510);
#5530=EDGE_CURVE('',#5520,#5420,#5500,.T.);
#5540=ORIENTED_EDGE('',*,*,#5530,.T.);
#5550=CARTESIAN_POINT('',(10.75,10.75,-10.));
#5560=DIRECTION('',(1.,0.,0.));
#5570=VECTOR('',#5560,1.);
#5580=LINE('',#5550,#5570);
#5590=CARTESIAN_POINT('',(10.75,10.75,-10.));
#5600=VERTEX_POINT('',#5590);
#5610=EDGE_CURVE('',#5600,#5520,#5580,.T.);
#5620=ORIENTED_EDGE('',*,*,#5610,.T.);
#5630=CARTESIAN_POINT('',(10.75,19.25,-10.));
#5640=DIRECTION('',(0.,-1.,0.));
#5650=VECTOR('',#5640,1.);
#5660=LINE('',#5630,#5650);
#5670=EDGE_CURVE('',#5440,#5600,#5660,.T.);
#5680=ORIENTED_EDGE('',*,*,#5670,.T.);
#5690=EDGE_LOOP('',(#5680,#5620,#5540,#5460));
#5700=FACE_BOUND('',#5690,.T.);
#5710=ADVANCED_FACE('',(#5360,#5700),#5020,.T.);
#5720=CARTESIAN_POINT('',(19.25,10.75,0.));
#5730=DIRECTION('',(0.,1.,-0.));
#5740=DIRECTION('',(-1.,0.,0.));
#5750=AXIS2_PLACEMENT_3D('',#5720,#5730,#5740);
#5760=PLANE('',#5750);
#5770=CARTESIAN_POINT('',(10.75,10.75,0.));
#5780=DIRECTION('',(0.,0.,-1.));
#5790=VECTOR('',#5780,1.);
#5800=LINE('',#5770,#5790);
#5810=EDGE_CURVE('',#4780,#5600,#5800,.T.);
#5820=ORIENTED_EDGE('',*,*,#5810,.F.);
#5830=ORIENTED_EDGE('',*,*,#5610,.F.);
#5840=CARTESIAN_POINT('',(19.25,10.75,0.));
#5850=DIRECTION('',(0.,0.,-1.));
#5860=VECTOR('',#5850,1.);
#5870=LINE('',#5840,#5860);
#5880=EDGE_CURVE('',#4860,#5520,#5870,.T.);
#5890=ORIENTED_EDGE('',*,*,#5880,.T.);
#5900=ORIENTED_EDGE('',*,*,#4870,.F.);
#5910=EDGE_LOOP('',(#5900,#5890,#5830,#5820));
#5920=FACE_OUTER_BOUND('',#5910,.T.);
#5930=ADVANCED_FACE('',(#5920),#5760,.T.);
#5940=CARTESIAN_POINT('',(19.25,19.25,0.));
#5950=DIRECTION('',(-1.,0.,0.));
#5960=DIRECTION('',(0.,-1.,0.));
#5970=AXIS2_PLACEMENT_3D('',#5940,#5950,#5960);
#5980=PLANE('',#5970);
#5990=ORIENTED_EDGE('',*,*,#5880,.F.);
#6000=ORIENTED_EDGE('',*,*,#5530,.F.);
#6010=CARTESIAN_POINT('',(19.25,19.25,0.));
#6020=DIRECTION('',(0.,0.,-1.));
#6030=VECTOR('',#6020,1.);
#6040=LINE('',#6010,#6030);
#6050=EDGE_CURVE('',#4700,#5420,#6040,.T.);
#6060=ORIENTED_EDGE('',*,*,#6050,.T.);
#6070=ORIENTED_EDGE('',*,*,#4930,.F.);
#6080=EDGE_LOOP('',(#6070,#6060,#6000,#5990));
#6090=FACE_OUTER_BOUND('',#6080,.T.);
#6100=ADVANCED_FACE('',(#6090),#5980,.T.);
#6110=CARTESIAN_POINT('',(10.75,19.25,0.));
#6120=DIRECTION('',(0.,-1.,0.));
#6130=DIRECTION('',(1.,0.,0.));
#6140=AXIS2_PLACEMENT_3D('',#6110,#6120,#6130);
#6150=PLANE('',#6140);
#6160=ORIENTED_EDGE('',*,*,#6050,.F.);
#6170=ORIENTED_EDGE('',*,*,#5450,.F.);
#6180=CARTESIAN_POINT('',(10.75,19.25,0.));
#6190=DIRECTION('',(0.,0.,-1.));
#6200=VECTOR('',#6190,1.);
#6210=LINE('',#6180,#6200);
#6220=EDGE_CURVE('',#4680,#5440,#6210,.T.);
#6230=ORIENTED_EDGE('',*,*,#6220,.T.);
#6240=ORIENTED_EDGE('',*,*,#4710,.F.);
#6250=EDGE_LOOP('',(#6240,#6230,#6170,#6160));
#6260=FACE_OUTER_BOUND('',#6250,.T.);
#6270=ADVANCED_FACE('',(#6260),#6150,.T.);
#6280=CARTESIAN_POINT('',(10.75,10.75,0.));
#6290=DIRECTION('',(1.,0.,0.));
#6300=DIRECTION('',(0.,1.,0.));
#6310=AXIS2_PLACEMENT_3D('',#6280,#6290,#6300);
#6320=PLANE('',#6310);
#6330=ORIENTED_EDGE('',*,*,#6220,.F.);
#6340=ORIENTED_EDGE('',*,*,#5670,.F.);
#6350=ORIENTED_EDGE('',*,*,#5810,.T.);
#6360=ORIENTED_EDGE('',*,*,#4790,.F.);
#6370=EDGE_LOOP('',(#6360,#6350,#6340,#6330));
#6380=FACE_OUTER_BOUND('',#6370,.T.);
#6390=ADVANCED_FACE('',(#6380),#6320,.T.);
#6400=CARTESIAN_POINT('',(9.,9.,0.));
#6410=DIRECTION('',(0.,-1.,0.));
#6420=DIRECTION('',(1.,0.,0.));
#6430=AXIS2_PLACEMENT_3D('',#6400,#6410,#6420);
#6440=PLANE('',#6430);
#6450=CARTESIAN_POINT('',(21.,9.,0.));
#6460=DIRECTION('',(0.,0.,-1.));
#6470=VECTOR('',#6460,1.);
#6480=LINE('',#6450,#6470);
#6490=EDGE_CURVE('',#3910,#5100,#6480,.T.);
#6500=ORIENTED_EDGE('',*,*,#6490,.F.);
#6510=ORIENTED_EDGE('',*,*,#5110,.T.);
#6520=CARTESIAN_POINT('',(9.,9.,0.));
#6530=DIRECTION('',(0.,0.,-1.));
#6540=VECTOR('',#6530,1.);
#6550=LINE('',#6520,#6540);
#6560=EDGE_CURVE('',#3990,#5080,#6550,.T.);
#6570=ORIENTED_EDGE('',*,*,#6560,.T.);
#6580=ORIENTED_EDGE('',*,*,#4000,.F.);
#6590=EDGE_LOOP('',(#6580,#6570,#6510,#6500));
#6600=FACE_OUTER_BOUND('',#6590,.T.);
#6610=ADVANCED_FACE('',(#6600),#6440,.T.);
#6620=CARTESIAN_POINT('',(21.,9.,0.));
#6630=DIRECTION('',(1.,0.,0.));
#6640=DIRECTION('',(0.,1.,0.));
#6650=AXIS2_PLACEMENT_3D('',#6620,#6630,#6640);
#6660=PLANE('',#6650);
#6670=CARTESIAN_POINT('',(21.,21.,0.));
#6680=DIRECTION('',(0.,0.,-1.));
#6690=VECTOR('',#6680,1.);
#6700=LINE('',#6670,#6690);
#6710=EDGE_CURVE('',#3810,#5180,#6700,.T.);
#6720=ORIENTED_EDGE('',*,*,#6710,.F.);
#6730=ORIENTED_EDGE('',*,*,#5190,.T.);
#6740=ORIENTED_EDGE('',*,*,#6490,.T.);
#6750=ORIENTED_EDGE('',*,*,#3920,.F.);
#6760=EDGE_LOOP('',(#6750,#6740,#6730,#6720));
#6770=FACE_OUTER_BOUND('',#6760,.T.);
#6780=ADVANCED_FACE('',(#6770),#6660,.T.);
#6790=CARTESIAN_POINT('',(21.,21.,0.));
#6800=DIRECTION('',(0.,1.,-0.));
#6810=DIRECTION('',(-1.,0.,0.));
#6820=AXIS2_PLACEMENT_3D('',#6790,#6800,#6810);
#6830=PLANE('',#6820);
#6840=CARTESIAN_POINT('',(9.,21.,0.));
#6850=DIRECTION('',(0.,0.,-1.));
#6860=VECTOR('',#6850,1.);
#6870=LINE('',#6840,#6860);
#6880=EDGE_CURVE('',#3830,#5260,#6870,.T.);
#6890=ORIENTED_EDGE('',*,*,#6880,.F.);
#6900=ORIENTED_EDGE('',*,*,#5270,.T.);
#6910=ORIENTED_EDGE('',*,*,#6710,.T.);
#6920=ORIENTED_EDGE('',*,*,#3840,.F.);
#6930=EDGE_LOOP('',(#6920,#6910,#6900,#6890));
#6940=FACE_OUTER_BOUND('',#6930,.T.);
#6950=ADVANCED_FACE('',(#6940),#6830,.T.);
#6960=CARTESIAN_POINT('',(9.,21.,0.));
#6970=DIRECTION('',(-1.,0.,0.));
#6980=DIRECTION('',(0.,-1.,0.));
#6990=AXIS2_PLACEMENT_3D('',#6960,#6970,#6980);
#7000=PLANE('',#6990);
#7010=ORIENTED_EDGE('',*,*,#6560,.F.);
#7020=ORIENTED_EDGE('',*,*,#5330,.T.);
#7030=ORIENTED_EDGE('',*,*,#6880,.T.);
#7040=ORIENTED_EDGE('',*,*,#4060,.F.);
#7050=EDGE_LOOP('',(#7040,#7030,#7020,#7010));
#7060=FACE_OUTER_BOUND('',#7050,.T.);
#7070=ADVANCED_FACE('',(#7060),#7000,.T.);
#7080=CLOSED_SHELL('',(#2430,#2740,#3050,#3360,#4100,#4230,#4360,#4490,
#4620,#4970,#5710,#5930,#6100,#6270,#6390,#6610,#6780,#6950,#7070,#400,
#910,#1340,#1770,#2120));
#7090=MANIFOLD_SOLID_BREP('',#7080);
#7100=CARTESIAN_POINT('',(0.,0.,0.));
#7110=DIRECTION('',(0.,0.,1.));
#7120=DIRECTION('',(1.,0.,0.));
#7130=AXIS2_PLACEMENT_3D('',#7100,#7110,#7120);
#7140=APPLICATION_CONTEXT(' ');
#7150=APPLICATION_PROTOCOL_DEFINITION(' ','automotive_design',1998,#7140
);
#7160=PRODUCT_CONTEXT('',#7140,'mechanical');
#7170=PRODUCT_DEFINITION_CONTEXT('part definition',#7140,'design');
#7180=PRODUCT('Abdeckkappe-MMS-33_30x30x15_33.0305_PX176142',
'Abdeckkappe-MMS-33_30x30x15_33.0305_PX176142','',(#7160));
#7190=PRODUCT_RELATED_PRODUCT_CATEGORY('part',' ',(#7180));
#7200=PRODUCT_DEFINITION_FORMATION_WITH_SPECIFIED_SOURCE('','',#7180,
.BOUGHT.);
#7210=PRODUCT_DEFINITION('',' ',#7200,#7170);
#7220=PRODUCT_DEFINITION_SHAPE('','',#7210);
#7230=DIMENSIONAL_EXPONENTS(1.,0.,0.,0.,0.,0.,0.);
#7240=DIMENSIONAL_EXPONENTS(0.,0.,0.,0.,0.,0.,0.);
#7250=DIMENSIONAL_EXPONENTS(0.,0.,0.,0.,0.,0.,0.);
#7260=(LENGTH_UNIT() NAMED_UNIT(*) SI_UNIT(.MILLI.,.METRE.));
#7270=(NAMED_UNIT(*) PLANE_ANGLE_UNIT() SI_UNIT($,.RADIAN.));
#7280=(NAMED_UNIT(*) SI_UNIT($,.STERADIAN.) SOLID_ANGLE_UNIT());
#7290=(GEOMETRIC_REPRESENTATION_CONTEXT(3) 
GLOBAL_UNCERTAINTY_ASSIGNED_CONTEXT((#7300)) 
GLOBAL_UNIT_ASSIGNED_CONTEXT((#7260,#7270,#7280)) REPRESENTATION_CONTEXT
('',''));
#7300=UNCERTAINTY_MEASURE_WITH_UNIT(LENGTH_MEASURE(1.E-6),#7260,
'distance_accuracy_value','maximum gap value');
#7310=ADVANCED_BREP_SHAPE_REPRESENTATION('',(#7130,#7090),#7290);
#7320=SHAPE_DEFINITION_REPRESENTATION(#7220,#7310);
#7330=COLOUR_RGB('',0.0823529437184334,0.0862745121121407,
0.0980392247438431);
#7340=FILL_AREA_STYLE_COLOUR('',#7330);
#7350=FILL_AREA_STYLE('',(#7340));
#7360=SURFACE_STYLE_FILL_AREA(#7350);
#7370=SURFACE_SIDE_STYLE('',(#7360));
#7380=SURFACE_STYLE_USAGE(.BOTH.,#7370);
#7390=PRESENTATION_STYLE_ASSIGNMENT((#7380));
#7400=STYLED_ITEM('',(#7390),#7090);
#7410=DRAUGHTING_MODEL('',(#7400),#7290);
ENDSEC;
END-ISO-10303-21;
