ISO-10303-21;
HEADER;
FILE_DESCRIPTION(('Creo Elements/Direct Modeling STEP Export'),'2;1');
FILE_NAME(
'//KR-CAD2/PhoenixTemp/karl.letzgus/Konvertierung/44.0025.1_Winkelprofil
-MMS-44_48x48mm.stp','2022-03-21T 8:56:13',(''),(''),
'PTC Creo Elements/Direct Modeling STEP processor for AP214 (Solid Model
)',
'PTC Creo Elements/Direct Modeling 19.0C  15-Aug-2015 (C) Parametric Tec
hnology GmbH','');
FILE_SCHEMA(('AUTOMOTIVE_DESIGN { 1 0 10303 214 1 1 1 1 }'));
ENDSEC;
DATA;
#10=CARTESIAN_POINT('',(19.38,-6.5,-21.5));
#20=DIRECTION('',(-1.,0.,0.));
#30=DIRECTION('',(0.,1.,0.));
#40=AXIS2_PLACEMENT_3D('',#10,#20,#30);
#50=CYLINDRICAL_SURFACE('',#40,4.);
#60=CARTESIAN_POINT('',(19.,-6.5,-21.5));
#70=DIRECTION('',(-1.,0.,0.));
#80=DIRECTION('',(0.,1.,0.));
#90=AXIS2_PLACEMENT_3D('',#60,#70,#80);
#100=CIRCLE('',#90,4.);
#110=CARTESIAN_POINT('',(19.,-6.5,-25.5));
#120=VERTEX_POINT('',#110);
#130=CARTESIAN_POINT('',(19.,-10.5,-21.5));
#140=VERTEX_POINT('',#130);
#150=EDGE_CURVE('',#120,#140,#100,.T.);
#160=ORIENTED_EDGE('',*,*,#150,.F.);
#170=CARTESIAN_POINT('',(19.38,-10.5,-21.5));
#180=DIRECTION('',(-1.,0.,0.));
#190=VECTOR('',#180,1.);
#200=LINE('',#170,#190);
#210=CARTESIAN_POINT('',(-81.,-10.5,-21.5));
#220=VERTEX_POINT('',#210);
#230=EDGE_CURVE('',#140,#220,#200,.T.);
#240=ORIENTED_EDGE('',*,*,#230,.F.);
#250=CARTESIAN_POINT('',(-81.,-6.5,-21.5));
#260=DIRECTION('',(1.,0.,0.));
#270=DIRECTION('',(0.,1.,0.));
#280=AXIS2_PLACEMENT_3D('',#250,#260,#270);
#290=CIRCLE('',#280,4.);
#300=CARTESIAN_POINT('',(-81.,-6.5,-25.5));
#310=VERTEX_POINT('',#300);
#320=EDGE_CURVE('',#220,#310,#290,.T.);
#330=ORIENTED_EDGE('',*,*,#320,.F.);
#340=CARTESIAN_POINT('',(-81.,-2.50000000000001,-21.5));
#350=VERTEX_POINT('',#340);
#360=EDGE_CURVE('',#310,#350,#290,.T.);
#370=ORIENTED_EDGE('',*,*,#360,.F.);
#380=CARTESIAN_POINT('',(19.38,-2.50000000000001,-21.5));
#390=DIRECTION('',(-1.,0.,0.));
#400=VECTOR('',#390,1.);
#410=LINE('',#380,#400);
#420=CARTESIAN_POINT('',(19.,-2.50000000000001,-21.5));
#430=VERTEX_POINT('',#420);
#440=EDGE_CURVE('',#430,#350,#410,.T.);
#450=ORIENTED_EDGE('',*,*,#440,.T.);
#460=EDGE_CURVE('',#430,#120,#100,.T.);
#470=ORIENTED_EDGE('',*,*,#460,.F.);
#480=EDGE_LOOP('',(#470,#450,#370,#330,#240,#160));
#490=FACE_OUTER_BOUND('',#480,.T.);
#500=ADVANCED_FACE('',(#490),#50,.F.);
#510=COLOUR_RGB('',0.709803938865662,0.709803938865662,0.709803938865662
);
#520=FILL_AREA_STYLE_COLOUR('',#510);
#530=FILL_AREA_STYLE('',(#520));
#540=SURFACE_STYLE_FILL_AREA(#530);
#550=SURFACE_SIDE_STYLE('',(#540));
#560=SURFACE_STYLE_USAGE(.BOTH.,#550);
#570=PRESENTATION_STYLE_ASSIGNMENT((#560));
#580=CARTESIAN_POINT('',(-81.,-48.48,-28.48));
#590=DIRECTION('',(1.,0.,0.));
#600=DIRECTION('',(0.,-1.,0.));
#610=AXIS2_PLACEMENT_3D('',#580,#590,#600);
#620=PLANE('',#610);
#630=EDGE_CURVE('',#350,#220,#290,.T.);
#640=ORIENTED_EDGE('',*,*,#630,.T.);
#650=ORIENTED_EDGE('',*,*,#360,.T.);
#660=ORIENTED_EDGE('',*,*,#320,.T.);
#670=EDGE_LOOP('',(#660,#650,#640));
#680=FACE_BOUND('',#670,.T.);
#690=CARTESIAN_POINT('',(-81.,-7.,0.));
#700=DIRECTION('',(0.,0.,1.));
#710=VECTOR('',#700,1.);
#720=LINE('',#690,#710);
#730=CARTESIAN_POINT('',(-81.,-7.,-12.6258803253506));
#740=VERTEX_POINT('',#730);
#750=CARTESIAN_POINT('',(-81.,-7.,17.));
#760=VERTEX_POINT('',#750);
#770=EDGE_CURVE('',#740,#760,#720,.T.);
#780=ORIENTED_EDGE('',*,*,#770,.T.);
#790=CARTESIAN_POINT('',(-81.,-8.00000000000016,-12.6258803253506));
#800=DIRECTION('',(1.,0.,0.));
#810=DIRECTION('',(0.,-1.,0.));
#820=AXIS2_PLACEMENT_3D('',#790,#800,#810);
#830=CIRCLE('',#820,1.);
#840=CARTESIAN_POINT('',(-81.,-7.83333333333347,-13.6118936225338));
#850=VERTEX_POINT('',#840);
#860=EDGE_CURVE('',#850,#740,#830,.T.);
#870=ORIENTED_EDGE('',*,*,#860,.T.);
#880=CARTESIAN_POINT('',(-81.,-6.49999999999997,-21.5));
#890=DIRECTION('',(-1.,0.,0.));
#900=DIRECTION('',(0.,-1.,0.));
#910=AXIS2_PLACEMENT_3D('',#880,#890,#900);
#920=CIRCLE('',#910,8.00000000000002);
#930=CARTESIAN_POINT('',(-81.,-14.3881063774662,-20.1666666666667));
#940=VERTEX_POINT('',#930);
#950=EDGE_CURVE('',#940,#850,#920,.T.);
#960=ORIENTED_EDGE('',*,*,#950,.T.);
#970=CARTESIAN_POINT('',(-81.,-15.3741196746494,-20.));
#980=DIRECTION('',(1.,0.,0.));
#990=DIRECTION('',(0.,-1.,0.));
#1000=AXIS2_PLACEMENT_3D('',#970,#980,#990);
#1010=CIRCLE('',#1000,0.999999999999998);
#1020=CARTESIAN_POINT('',(-81.,-15.3741196746494,-21.));
#1030=VERTEX_POINT('',#1020);
#1040=EDGE_CURVE('',#1030,#940,#1010,.T.);
#1050=ORIENTED_EDGE('',*,*,#1040,.T.);
#1060=CARTESIAN_POINT('',(-81.,0.,-21.));
#1070=DIRECTION('',(0.,1.,0.));
#1080=VECTOR('',#1070,1.);
#1090=LINE('',#1060,#1080);
#1100=CARTESIAN_POINT('',(-81.,-45.,-21.));
#1110=VERTEX_POINT('',#1100);
#1120=EDGE_CURVE('',#1110,#1030,#1090,.T.);
#1130=ORIENTED_EDGE('',*,*,#1120,.T.);
#1140=CARTESIAN_POINT('',(-81.,-45.,-24.));
#1150=DIRECTION('',(-1.,0.,0.));
#1160=DIRECTION('',(0.,-1.,0.));
#1170=AXIS2_PLACEMENT_3D('',#1140,#1150,#1160);
#1180=CIRCLE('',#1170,3.);
#1190=CARTESIAN_POINT('',(-81.,-48.,-24.));
#1200=VERTEX_POINT('',#1190);
#1210=EDGE_CURVE('',#1200,#1110,#1180,.T.);
#1220=ORIENTED_EDGE('',*,*,#1210,.T.);
#1230=CARTESIAN_POINT('',(-81.,-48.,0.));
#1240=DIRECTION('',(0.,0.,1.));
#1250=VECTOR('',#1240,1.);
#1260=LINE('',#1230,#1250);
#1270=CARTESIAN_POINT('',(-81.,-48.,-28.));
#1280=VERTEX_POINT('',#1270);
#1290=EDGE_CURVE('',#1280,#1200,#1260,.T.);
#1300=ORIENTED_EDGE('',*,*,#1290,.T.);
#1310=CARTESIAN_POINT('',(-81.,0.,-28.));
#1320=DIRECTION('',(0.,-1.,0.));
#1330=VECTOR('',#1320,1.);
#1340=LINE('',#1310,#1330);
#1350=CARTESIAN_POINT('',(-81.,-1.71444889535133E-15,-28.));
#1360=VERTEX_POINT('',#1350);
#1370=EDGE_CURVE('',#1360,#1280,#1340,.T.);
#1380=ORIENTED_EDGE('',*,*,#1370,.T.);
#1390=CARTESIAN_POINT('',(-81.,-1.74383944784307E-15,0.));
#1400=DIRECTION('',(0.,0.,-1.));
#1410=VECTOR('',#1400,1.);
#1420=LINE('',#1390,#1410);
#1430=CARTESIAN_POINT('',(-81.,-1.74383944784307E-15,20.));
#1440=VERTEX_POINT('',#1430);
#1450=EDGE_CURVE('',#1440,#1360,#1420,.T.);
#1460=ORIENTED_EDGE('',*,*,#1450,.T.);
#1470=CARTESIAN_POINT('',(-81.,0.,20.));
#1480=DIRECTION('',(0.,1.,0.));
#1490=VECTOR('',#1480,1.);
#1500=LINE('',#1470,#1490);
#1510=CARTESIAN_POINT('',(-81.,-4.,20.));
#1520=VERTEX_POINT('',#1510);
#1530=EDGE_CURVE('',#1520,#1440,#1500,.T.);
#1540=ORIENTED_EDGE('',*,*,#1530,.T.);
#1550=CARTESIAN_POINT('',(-81.,-3.99999999999999,17.));
#1560=DIRECTION('',(-1.,0.,0.));
#1570=DIRECTION('',(0.,-1.,0.));
#1580=AXIS2_PLACEMENT_3D('',#1550,#1560,#1570);
#1590=CIRCLE('',#1580,3.00000000000001);
#1600=EDGE_CURVE('',#760,#1520,#1590,.T.);
#1610=ORIENTED_EDGE('',*,*,#1600,.T.);
#1620=EDGE_LOOP('',(#1610,#1540,#1460,#1380,#1300,#1220,#1130,#1050,#960
,#870,#780));
#1630=FACE_OUTER_BOUND('',#1620,.T.);
#1640=ADVANCED_FACE('',(#680,#1630),#620,.F.);
#1650=COLOUR_RGB('',0.709803938865662,0.709803938865662,
0.709803938865662);
#1660=FILL_AREA_STYLE_COLOUR('',#1650);
#1670=FILL_AREA_STYLE('',(#1660));
#1680=SURFACE_STYLE_FILL_AREA(#1670);
#1690=SURFACE_SIDE_STYLE('',(#1680));
#1700=SURFACE_STYLE_USAGE(.BOTH.,#1690);
#1710=PRESENTATION_STYLE_ASSIGNMENT((#1700));
#1720=CARTESIAN_POINT('',(19.,-48.48,-28.48));
#1730=DIRECTION('',(1.,0.,0.));
#1740=DIRECTION('',(0.,-1.,0.));
#1750=AXIS2_PLACEMENT_3D('',#1720,#1730,#1740);
#1760=PLANE('',#1750);
#1770=EDGE_CURVE('',#140,#430,#100,.T.);
#1780=ORIENTED_EDGE('',*,*,#1770,.T.);
#1790=ORIENTED_EDGE('',*,*,#150,.T.);
#1800=ORIENTED_EDGE('',*,*,#460,.T.);
#1810=EDGE_LOOP('',(#1800,#1790,#1780));
#1820=FACE_BOUND('',#1810,.T.);
#1830=CARTESIAN_POINT('',(19.,0.,20.));
#1840=DIRECTION('',(0.,1.,0.));
#1850=VECTOR('',#1840,1.);
#1860=LINE('',#1830,#1850);
#1870=CARTESIAN_POINT('',(19.,-4.,20.));
#1880=VERTEX_POINT('',#1870);
#1890=CARTESIAN_POINT('',(19.,-1.74383944784307E-15,20.));
#1900=VERTEX_POINT('',#1890);
#1910=EDGE_CURVE('',#1880,#1900,#1860,.T.);
#1920=ORIENTED_EDGE('',*,*,#1910,.F.);
#1930=CARTESIAN_POINT('',(19.,-1.74383944784307E-15,0.));
#1940=DIRECTION('',(0.,0.,-1.));
#1950=VECTOR('',#1940,1.);
#1960=LINE('',#1930,#1950);
#1970=CARTESIAN_POINT('',(19.,-1.74383944784307E-15,-28.));
#1980=VERTEX_POINT('',#1970);
#1990=EDGE_CURVE('',#1900,#1980,#1960,.T.);
#2000=ORIENTED_EDGE('',*,*,#1990,.F.);
#2010=CARTESIAN_POINT('',(19.,0.,-28.));
#2020=DIRECTION('',(0.,-1.,0.));
#2030=VECTOR('',#2020,1.);
#2040=LINE('',#2010,#2030);
#2050=CARTESIAN_POINT('',(19.,-48.,-28.));
#2060=VERTEX_POINT('',#2050);
#2070=EDGE_CURVE('',#1980,#2060,#2040,.T.);
#2080=ORIENTED_EDGE('',*,*,#2070,.F.);
#2090=CARTESIAN_POINT('',(19.,-48.,0.));
#2100=DIRECTION('',(0.,0.,1.));
#2110=VECTOR('',#2100,1.);
#2120=LINE('',#2090,#2110);
#2130=CARTESIAN_POINT('',(19.,-48.,-24.));
#2140=VERTEX_POINT('',#2130);
#2150=EDGE_CURVE('',#2060,#2140,#2120,.T.);
#2160=ORIENTED_EDGE('',*,*,#2150,.F.);
#2170=CARTESIAN_POINT('',(19.,-45.,-24.));
#2180=DIRECTION('',(-1.,0.,0.));
#2190=DIRECTION('',(0.,-1.,0.));
#2200=AXIS2_PLACEMENT_3D('',#2170,#2180,#2190);
#2210=CIRCLE('',#2200,3.);
#2220=CARTESIAN_POINT('',(19.,-45.,-21.));
#2230=VERTEX_POINT('',#2220);
#2240=EDGE_CURVE('',#2140,#2230,#2210,.T.);
#2250=ORIENTED_EDGE('',*,*,#2240,.F.);
#2260=CARTESIAN_POINT('',(19.,0.,-21.));
#2270=DIRECTION('',(0.,1.,0.));
#2280=VECTOR('',#2270,1.);
#2290=LINE('',#2260,#2280);
#2300=CARTESIAN_POINT('',(19.,-15.3741196746494,-21.));
#2310=VERTEX_POINT('',#2300);
#2320=EDGE_CURVE('',#2230,#2310,#2290,.T.);
#2330=ORIENTED_EDGE('',*,*,#2320,.F.);
#2340=CARTESIAN_POINT('',(19.,-15.3741196746494,-20.));
#2350=DIRECTION('',(1.,0.,0.));
#2360=DIRECTION('',(0.,-1.,0.));
#2370=AXIS2_PLACEMENT_3D('',#2340,#2350,#2360);
#2380=CIRCLE('',#2370,0.999999999999998);
#2390=CARTESIAN_POINT('',(19.,-14.3881063774662,-20.1666666666667));
#2400=VERTEX_POINT('',#2390);
#2410=EDGE_CURVE('',#2310,#2400,#2380,.T.);
#2420=ORIENTED_EDGE('',*,*,#2410,.F.);
#2430=CARTESIAN_POINT('',(19.,-6.49999999999997,-21.5));
#2440=DIRECTION('',(-1.,0.,0.));
#2450=DIRECTION('',(0.,-1.,0.));
#2460=AXIS2_PLACEMENT_3D('',#2430,#2440,#2450);
#2470=CIRCLE('',#2460,8.00000000000002);
#2480=CARTESIAN_POINT('',(19.,-7.83333333333347,-13.6118936225338));
#2490=VERTEX_POINT('',#2480);
#2500=EDGE_CURVE('',#2400,#2490,#2470,.T.);
#2510=ORIENTED_EDGE('',*,*,#2500,.F.);
#2520=CARTESIAN_POINT('',(19.,-8.00000000000016,-12.6258803253506));
#2530=DIRECTION('',(1.,0.,0.));
#2540=DIRECTION('',(0.,-1.,0.));
#2550=AXIS2_PLACEMENT_3D('',#2520,#2530,#2540);
#2560=CIRCLE('',#2550,1.);
#2570=CARTESIAN_POINT('',(19.,-7.,-12.6258803253506));
#2580=VERTEX_POINT('',#2570);
#2590=EDGE_CURVE('',#2490,#2580,#2560,.T.);
#2600=ORIENTED_EDGE('',*,*,#2590,.F.);
#2610=CARTESIAN_POINT('',(19.,-7.,0.));
#2620=DIRECTION('',(0.,0.,1.));
#2630=VECTOR('',#2620,1.);
#2640=LINE('',#2610,#2630);
#2650=CARTESIAN_POINT('',(19.,-7.,17.));
#2660=VERTEX_POINT('',#2650);
#2670=EDGE_CURVE('',#2580,#2660,#2640,.T.);
#2680=ORIENTED_EDGE('',*,*,#2670,.F.);
#2690=CARTESIAN_POINT('',(19.,-3.99999999999999,17.));
#2700=DIRECTION('',(-1.,0.,0.));
#2710=DIRECTION('',(0.,-1.,0.));
#2720=AXIS2_PLACEMENT_3D('',#2690,#2700,#2710);
#2730=CIRCLE('',#2720,3.00000000000001);
#2740=EDGE_CURVE('',#2660,#1880,#2730,.T.);
#2750=ORIENTED_EDGE('',*,*,#2740,.F.);
#2760=EDGE_LOOP('',(#2750,#2680,#2600,#2510,#2420,#2330,#2250,#2160,
#2080,#2000,#1920));
#2770=FACE_OUTER_BOUND('',#2760,.T.);
#2780=ADVANCED_FACE('',(#1820,#2770),#1760,.T.);
#2790=COLOUR_RGB('',0.709803938865662,0.709803938865662,
0.709803938865662);
#2800=FILL_AREA_STYLE_COLOUR('',#2790);
#2810=FILL_AREA_STYLE('',(#2800));
#2820=SURFACE_STYLE_FILL_AREA(#2810);
#2830=SURFACE_SIDE_STYLE('',(#2820));
#2840=SURFACE_STYLE_USAGE(.BOTH.,#2830);
#2850=PRESENTATION_STYLE_ASSIGNMENT((#2840));
#2860=CARTESIAN_POINT('',(-19.38,-3.99999999999999,17.));
#2870=DIRECTION('',(1.,0.,0.));
#2880=DIRECTION('',(0.,-1.,0.));
#2890=AXIS2_PLACEMENT_3D('',#2860,#2870,#2880);
#2900=CYLINDRICAL_SURFACE('',#2890,3.00000000000001);
#2910=CARTESIAN_POINT('',(-19.,-7.,17.));
#2920=DIRECTION('',(1.,0.,0.));
#2930=VECTOR('',#2920,1.);
#2940=LINE('',#2910,#2930);
#2950=EDGE_CURVE('',#760,#2660,#2940,.T.);
#2960=ORIENTED_EDGE('',*,*,#2950,.T.);
#2970=ORIENTED_EDGE('',*,*,#1600,.F.);
#2980=CARTESIAN_POINT('',(-19.,-4.,20.));
#2990=DIRECTION('',(1.,0.,0.));
#3000=VECTOR('',#2990,1.);
#3010=LINE('',#2980,#3000);
#3020=EDGE_CURVE('',#1520,#1880,#3010,.T.);
#3030=ORIENTED_EDGE('',*,*,#3020,.F.);
#3040=ORIENTED_EDGE('',*,*,#2740,.T.);
#3050=EDGE_LOOP('',(#3040,#3030,#2970,#2960));
#3060=FACE_OUTER_BOUND('',#3050,.T.);
#3070=ADVANCED_FACE('',(#3060),#2900,.T.);
#3080=COLOUR_RGB('',0.709803938865662,0.709803938865662,
0.709803938865662);
#3090=FILL_AREA_STYLE_COLOUR('',#3080);
#3100=FILL_AREA_STYLE('',(#3090));
#3110=SURFACE_STYLE_FILL_AREA(#3100);
#3120=SURFACE_SIDE_STYLE('',(#3110));
#3130=SURFACE_STYLE_USAGE(.BOTH.,#3120);
#3140=PRESENTATION_STYLE_ASSIGNMENT((#3130));
#3150=CARTESIAN_POINT('',(-19.38,-4.04,20.));
#3160=DIRECTION('',(0.,0.,1.));
#3170=DIRECTION('',(1.,0.,0.));
#3180=AXIS2_PLACEMENT_3D('',#3150,#3160,#3170);
#3190=PLANE('',#3180);
#3200=ORIENTED_EDGE('',*,*,#3020,.T.);
#3210=ORIENTED_EDGE('',*,*,#1530,.F.);
#3220=CARTESIAN_POINT('',(0.,-1.74383944784307E-15,20.));
#3230=DIRECTION('',(1.,0.,0.));
#3240=VECTOR('',#3230,1.);
#3250=LINE('',#3220,#3240);
#3260=EDGE_CURVE('',#1440,#1900,#3250,.T.);
#3270=ORIENTED_EDGE('',*,*,#3260,.F.);
#3280=ORIENTED_EDGE('',*,*,#1910,.T.);
#3290=EDGE_LOOP('',(#3280,#3270,#3210,#3200));
#3300=FACE_OUTER_BOUND('',#3290,.T.);
#3310=ADVANCED_FACE('',(#3300),#3190,.T.);
#3320=COLOUR_RGB('',0.709803938865662,0.709803938865662,
0.709803938865662);
#3330=FILL_AREA_STYLE_COLOUR('',#3320);
#3340=FILL_AREA_STYLE('',(#3330));
#3350=SURFACE_STYLE_FILL_AREA(#3340);
#3360=SURFACE_SIDE_STYLE('',(#3350));
#3370=SURFACE_STYLE_USAGE(.BOTH.,#3360);
#3380=PRESENTATION_STYLE_ASSIGNMENT((#3370));
#3390=CARTESIAN_POINT('',(19.38,-1.74383944784307E-15,-28.48));
#3400=DIRECTION('',(-0.,1.,0.));
#3410=DIRECTION('',(1.,0.,0.));
#3420=AXIS2_PLACEMENT_3D('',#3390,#3400,#3410);
#3430=PLANE('',#3420);
#3440=ORIENTED_EDGE('',*,*,#3260,.T.);
#3450=ORIENTED_EDGE('',*,*,#1450,.F.);
#3460=CARTESIAN_POINT('',(0.,-1.74383944784307E-15,-28.));
#3470=DIRECTION('',(1.,0.,0.));
#3480=VECTOR('',#3470,1.);
#3490=LINE('',#3460,#3480);
#3500=EDGE_CURVE('',#1360,#1980,#3490,.T.);
#3510=ORIENTED_EDGE('',*,*,#3500,.F.);
#3520=ORIENTED_EDGE('',*,*,#1990,.T.);
#3530=EDGE_LOOP('',(#3520,#3510,#3450,#3440));
#3540=FACE_OUTER_BOUND('',#3530,.T.);
#3550=ADVANCED_FACE('',(#3540),#3430,.T.);
#3560=COLOUR_RGB('',0.709803938865662,0.709803938865662,
0.709803938865662);
#3570=FILL_AREA_STYLE_COLOUR('',#3560);
#3580=FILL_AREA_STYLE('',(#3570));
#3590=SURFACE_STYLE_FILL_AREA(#3580);
#3600=SURFACE_SIDE_STYLE('',(#3590));
#3610=SURFACE_STYLE_USAGE(.BOTH.,#3600);
#3620=PRESENTATION_STYLE_ASSIGNMENT((#3610));
#3630=CARTESIAN_POINT('',(19.38,-48.48,-28.));
#3640=DIRECTION('',(0.,0.,-1.));
#3650=DIRECTION('',(-1.,0.,0.));
#3660=AXIS2_PLACEMENT_3D('',#3630,#3640,#3650);
#3670=PLANE('',#3660);
#3680=ORIENTED_EDGE('',*,*,#3500,.T.);
#3690=ORIENTED_EDGE('',*,*,#1370,.F.);
#3700=CARTESIAN_POINT('',(0.,-48.,-28.));
#3710=DIRECTION('',(1.,0.,0.));
#3720=VECTOR('',#3710,1.);
#3730=LINE('',#3700,#3720);
#3740=EDGE_CURVE('',#1280,#2060,#3730,.T.);
#3750=ORIENTED_EDGE('',*,*,#3740,.F.);
#3760=ORIENTED_EDGE('',*,*,#2070,.T.);
#3770=EDGE_LOOP('',(#3760,#3750,#3690,#3680));
#3780=FACE_OUTER_BOUND('',#3770,.T.);
#3790=ADVANCED_FACE('',(#3780),#3670,.T.);
#3800=COLOUR_RGB('',0.709803938865662,0.709803938865662,
0.709803938865662);
#3810=FILL_AREA_STYLE_COLOUR('',#3800);
#3820=FILL_AREA_STYLE('',(#3810));
#3830=SURFACE_STYLE_FILL_AREA(#3820);
#3840=SURFACE_SIDE_STYLE('',(#3830));
#3850=SURFACE_STYLE_USAGE(.BOTH.,#3840);
#3860=PRESENTATION_STYLE_ASSIGNMENT((#3850));
#3870=CARTESIAN_POINT('',(-19.38,-48.,-28.04));
#3880=DIRECTION('',(-0.,-1.,-0.));
#3890=DIRECTION('',(-1.,0.,0.));
#3900=AXIS2_PLACEMENT_3D('',#3870,#3880,#3890);
#3910=PLANE('',#3900);
#3920=ORIENTED_EDGE('',*,*,#3740,.T.);
#3930=ORIENTED_EDGE('',*,*,#1290,.F.);
#3940=CARTESIAN_POINT('',(-19.,-48.,-24.));
#3950=DIRECTION('',(1.,0.,0.));
#3960=VECTOR('',#3950,1.);
#3970=LINE('',#3940,#3960);
#3980=EDGE_CURVE('',#1200,#2140,#3970,.T.);
#3990=ORIENTED_EDGE('',*,*,#3980,.F.);
#4000=ORIENTED_EDGE('',*,*,#2150,.T.);
#4010=EDGE_LOOP('',(#4000,#3990,#3930,#3920));
#4020=FACE_OUTER_BOUND('',#4010,.T.);
#4030=ADVANCED_FACE('',(#4020),#3910,.T.);
#4040=COLOUR_RGB('',0.709803938865662,0.709803938865662,
0.709803938865662);
#4050=FILL_AREA_STYLE_COLOUR('',#4040);
#4060=FILL_AREA_STYLE('',(#4050));
#4070=SURFACE_STYLE_FILL_AREA(#4060);
#4080=SURFACE_SIDE_STYLE('',(#4070));
#4090=SURFACE_STYLE_USAGE(.BOTH.,#4080);
#4100=PRESENTATION_STYLE_ASSIGNMENT((#4090));
#4110=CARTESIAN_POINT('',(-19.38,-45.,-24.));
#4120=DIRECTION('',(1.,0.,0.));
#4130=DIRECTION('',(0.,-1.,0.));
#4140=AXIS2_PLACEMENT_3D('',#4110,#4120,#4130);
#4150=CYLINDRICAL_SURFACE('',#4140,3.);
#4160=ORIENTED_EDGE('',*,*,#3980,.T.);
#4170=ORIENTED_EDGE('',*,*,#1210,.F.);
#4180=CARTESIAN_POINT('',(-19.,-45.,-21.));
#4190=DIRECTION('',(1.,0.,0.));
#4200=VECTOR('',#4190,1.);
#4210=LINE('',#4180,#4200);
#4220=EDGE_CURVE('',#1110,#2230,#4210,.T.);
#4230=ORIENTED_EDGE('',*,*,#4220,.F.);
#4240=ORIENTED_EDGE('',*,*,#2240,.T.);
#4250=EDGE_LOOP('',(#4240,#4230,#4170,#4160));
#4260=FACE_OUTER_BOUND('',#4250,.T.);
#4270=ADVANCED_FACE('',(#4260),#4150,.T.);
#4280=COLOUR_RGB('',0.709803938865662,0.709803938865662,
0.709803938865662);
#4290=FILL_AREA_STYLE_COLOUR('',#4280);
#4300=FILL_AREA_STYLE('',(#4290));
#4310=SURFACE_STYLE_FILL_AREA(#4300);
#4320=SURFACE_SIDE_STYLE('',(#4310));
#4330=SURFACE_STYLE_USAGE(.BOTH.,#4320);
#4340=PRESENTATION_STYLE_ASSIGNMENT((#4330));
#4350=CARTESIAN_POINT('',(-19.38,-45.2962588032535,-21.));
#4360=DIRECTION('',(0.,0.,1.));
#4370=DIRECTION('',(1.,0.,0.));
#4380=AXIS2_PLACEMENT_3D('',#4350,#4360,#4370);
#4390=PLANE('',#4380);
#4400=ORIENTED_EDGE('',*,*,#4220,.T.);
#4410=ORIENTED_EDGE('',*,*,#1120,.F.);
#4420=CARTESIAN_POINT('',(-19.,-15.3741196746494,-21.));
#4430=DIRECTION('',(1.,0.,0.));
#4440=VECTOR('',#4430,1.);
#4450=LINE('',#4420,#4440);
#4460=EDGE_CURVE('',#1030,#2310,#4450,.T.);
#4470=ORIENTED_EDGE('',*,*,#4460,.F.);
#4480=ORIENTED_EDGE('',*,*,#2320,.T.);
#4490=EDGE_LOOP('',(#4480,#4470,#4410,#4400));
#4500=FACE_OUTER_BOUND('',#4490,.T.);
#4510=ADVANCED_FACE('',(#4500),#4390,.T.);
#4520=COLOUR_RGB('',0.709803938865662,0.709803938865662,
0.709803938865662);
#4530=FILL_AREA_STYLE_COLOUR('',#4520);
#4540=FILL_AREA_STYLE('',(#4530));
#4550=SURFACE_STYLE_FILL_AREA(#4540);
#4560=SURFACE_SIDE_STYLE('',(#4550));
#4570=SURFACE_STYLE_USAGE(.BOTH.,#4560);
#4580=PRESENTATION_STYLE_ASSIGNMENT((#4570));
#4590=CARTESIAN_POINT('',(-19.38,-15.3741196746494,-20.));
#4600=DIRECTION('',(1.,0.,0.));
#4610=DIRECTION('',(0.,-1.,0.));
#4620=AXIS2_PLACEMENT_3D('',#4590,#4600,#4610);
#4630=CYLINDRICAL_SURFACE('',#4620,0.999999999999998);
#4640=ORIENTED_EDGE('',*,*,#4460,.T.);
#4650=ORIENTED_EDGE('',*,*,#1040,.F.);
#4660=CARTESIAN_POINT('',(-19.,-14.3881063774662,-20.1666666666667));
#4670=DIRECTION('',(1.,0.,0.));
#4680=VECTOR('',#4670,1.);
#4690=LINE('',#4660,#4680);
#4700=EDGE_CURVE('',#940,#2400,#4690,.T.);
#4710=ORIENTED_EDGE('',*,*,#4700,.F.);
#4720=ORIENTED_EDGE('',*,*,#2410,.T.);
#4730=EDGE_LOOP('',(#4720,#4710,#4650,#4640));
#4740=FACE_OUTER_BOUND('',#4730,.T.);
#4750=ADVANCED_FACE('',(#4740),#4630,.F.);
#4760=COLOUR_RGB('',0.709803938865662,0.709803938865662,
0.709803938865662);
#4770=FILL_AREA_STYLE_COLOUR('',#4760);
#4780=FILL_AREA_STYLE('',(#4770));
#4790=SURFACE_STYLE_FILL_AREA(#4780);
#4800=SURFACE_SIDE_STYLE('',(#4790));
#4810=SURFACE_STYLE_USAGE(.BOTH.,#4800);
#4820=PRESENTATION_STYLE_ASSIGNMENT((#4810));
#4830=CARTESIAN_POINT('',(-19.38,-6.49999999999997,-21.5));
#4840=DIRECTION('',(1.,0.,0.));
#4850=DIRECTION('',(0.,-1.,0.));
#4860=AXIS2_PLACEMENT_3D('',#4830,#4840,#4850);
#4870=CYLINDRICAL_SURFACE('',#4860,8.00000000000002);
#4880=ORIENTED_EDGE('',*,*,#4700,.T.);
#4890=ORIENTED_EDGE('',*,*,#950,.F.);
#4900=CARTESIAN_POINT('',(-19.,-7.83333333333347,-13.6118936225338));
#4910=DIRECTION('',(1.,0.,0.));
#4920=VECTOR('',#4910,1.);
#4930=LINE('',#4900,#4920);
#4940=EDGE_CURVE('',#850,#2490,#4930,.T.);
#4950=ORIENTED_EDGE('',*,*,#4940,.F.);
#4960=ORIENTED_EDGE('',*,*,#2500,.T.);
#4970=EDGE_LOOP('',(#4960,#4950,#4890,#4880));
#4980=FACE_OUTER_BOUND('',#4970,.T.);
#4990=ADVANCED_FACE('',(#4980),#4870,.T.);
#5000=COLOUR_RGB('',0.709803938865662,0.709803938865662,
0.709803938865662);
#5010=FILL_AREA_STYLE_COLOUR('',#5000);
#5020=FILL_AREA_STYLE('',(#5010));
#5030=SURFACE_STYLE_FILL_AREA(#5020);
#5040=SURFACE_SIDE_STYLE('',(#5030));
#5050=SURFACE_STYLE_USAGE(.BOTH.,#5040);
#5060=PRESENTATION_STYLE_ASSIGNMENT((#5050));
#5070=CARTESIAN_POINT('',(-19.38,-8.00000000000016,-12.6258803253506));
#5080=DIRECTION('',(1.,0.,0.));
#5090=DIRECTION('',(0.,-1.,0.));
#5100=AXIS2_PLACEMENT_3D('',#5070,#5080,#5090);
#5110=CYLINDRICAL_SURFACE('',#5100,1.);
#5120=ORIENTED_EDGE('',*,*,#4940,.T.);
#5130=ORIENTED_EDGE('',*,*,#860,.F.);
#5140=CARTESIAN_POINT('',(-19.,-7.,-12.6258803253506));
#5150=DIRECTION('',(1.,0.,0.));
#5160=VECTOR('',#5150,1.);
#5170=LINE('',#5140,#5160);
#5180=EDGE_CURVE('',#740,#2580,#5170,.T.);
#5190=ORIENTED_EDGE('',*,*,#5180,.F.);
#5200=ORIENTED_EDGE('',*,*,#2590,.T.);
#5210=EDGE_LOOP('',(#5200,#5190,#5130,#5120));
#5220=FACE_OUTER_BOUND('',#5210,.T.);
#5230=ADVANCED_FACE('',(#5220),#5110,.F.);
#5240=COLOUR_RGB('',0.709803938865662,0.709803938865662,
0.709803938865662);
#5250=FILL_AREA_STYLE_COLOUR('',#5240);
#5260=FILL_AREA_STYLE('',(#5250));
#5270=SURFACE_STYLE_FILL_AREA(#5260);
#5280=SURFACE_SIDE_STYLE('',(#5270));
#5290=SURFACE_STYLE_USAGE(.BOTH.,#5280);
#5300=PRESENTATION_STYLE_ASSIGNMENT((#5290));
#5310=CARTESIAN_POINT('',(-19.38,-7.,-12.9221391286041));
#5320=DIRECTION('',(-0.,-1.,-0.));
#5330=DIRECTION('',(-1.,0.,0.));
#5340=AXIS2_PLACEMENT_3D('',#5310,#5320,#5330);
#5350=PLANE('',#5340);
#5360=ORIENTED_EDGE('',*,*,#5180,.T.);
#5370=ORIENTED_EDGE('',*,*,#770,.F.);
#5380=ORIENTED_EDGE('',*,*,#2950,.F.);
#5390=ORIENTED_EDGE('',*,*,#2670,.T.);
#5400=EDGE_LOOP('',(#5390,#5380,#5370,#5360));
#5410=FACE_OUTER_BOUND('',#5400,.T.);
#5420=ADVANCED_FACE('',(#5410),#5350,.T.);
#5430=COLOUR_RGB('',0.709803938865662,0.709803938865662,
0.709803938865662);
#5440=FILL_AREA_STYLE_COLOUR('',#5430);
#5450=FILL_AREA_STYLE('',(#5440));
#5460=SURFACE_STYLE_FILL_AREA(#5450);
#5470=SURFACE_SIDE_STYLE('',(#5460));
#5480=SURFACE_STYLE_USAGE(.BOTH.,#5470);
#5490=PRESENTATION_STYLE_ASSIGNMENT((#5480));
#5500=CARTESIAN_POINT('',(19.38,-6.5,-21.5));
#5510=DIRECTION('',(-1.,0.,0.));
#5520=DIRECTION('',(0.,1.,0.));
#5530=AXIS2_PLACEMENT_3D('',#5500,#5510,#5520);
#5540=CYLINDRICAL_SURFACE('',#5530,4.);
#5550=ORIENTED_EDGE('',*,*,#630,.F.);
#5560=ORIENTED_EDGE('',*,*,#230,.T.);
#5570=ORIENTED_EDGE('',*,*,#1770,.F.);
#5580=ORIENTED_EDGE('',*,*,#440,.F.);
#5590=EDGE_LOOP('',(#5580,#5570,#5560,#5550));
#5600=FACE_OUTER_BOUND('',#5590,.T.);
#5610=ADVANCED_FACE('',(#5600),#5540,.F.);
#5620=COLOUR_RGB('',0.709803938865662,0.709803938865662,
0.709803938865662);
#5630=FILL_AREA_STYLE_COLOUR('',#5620);
#5640=FILL_AREA_STYLE('',(#5630));
#5650=SURFACE_STYLE_FILL_AREA(#5640);
#5660=SURFACE_SIDE_STYLE('',(#5650));
#5670=SURFACE_STYLE_USAGE(.BOTH.,#5660);
#5680=PRESENTATION_STYLE_ASSIGNMENT((#5670));
#5690=CLOSED_SHELL('',(#500,#1640,#2780,#3070,#3310,#3550,#3790,#4030,
#4270,#4510,#4750,#4990,#5230,#5420,#5610));
#5700=MANIFOLD_SOLID_BREP('',#5690);
#5710=CARTESIAN_POINT('',(0.,0.,0.));
#5720=DIRECTION('',(0.,0.,1.));
#5730=DIRECTION('',(1.,0.,0.));
#5740=AXIS2_PLACEMENT_3D('',#5710,#5720,#5730);
#5750=APPLICATION_CONTEXT(' ');
#5760=APPLICATION_PROTOCOL_DEFINITION(' ','automotive_design',1998,#5750
);
#5770=PRODUCT_CONTEXT('',#5750,'mechanical');
#5780=PRODUCT_DEFINITION_CONTEXT('part definition',#5750,'design');
#5790=PRODUCT('Winkelprofil-MMS-44_48x48mm_44.0025.1_PX171813',
'Winkelprofil-MMS-44_48x48mm_44.0025.1_PX171813','',(#5770));
#5800=PRODUCT_RELATED_PRODUCT_CATEGORY('part',' ',(#5790));
#5810=PRODUCT_DEFINITION_FORMATION_WITH_SPECIFIED_SOURCE('','',#5790,
.BOUGHT.);
#5820=PRODUCT_DEFINITION('',' ',#5810,#5780);
#5830=PRODUCT_DEFINITION_SHAPE('','',#5820);
#5840=DIMENSIONAL_EXPONENTS(1.,0.,0.,0.,0.,0.,0.);
#5850=DIMENSIONAL_EXPONENTS(0.,0.,0.,0.,0.,0.,0.);
#5860=DIMENSIONAL_EXPONENTS(0.,0.,0.,0.,0.,0.,0.);
#5870=(LENGTH_UNIT() NAMED_UNIT(*) SI_UNIT(.MILLI.,.METRE.));
#5880=(NAMED_UNIT(*) PLANE_ANGLE_UNIT() SI_UNIT($,.RADIAN.));
#5890=(NAMED_UNIT(*) SI_UNIT($,.STERADIAN.) SOLID_ANGLE_UNIT());
#5900=(GEOMETRIC_REPRESENTATION_CONTEXT(3) 
GLOBAL_UNCERTAINTY_ASSIGNED_CONTEXT((#5910)) 
GLOBAL_UNIT_ASSIGNED_CONTEXT((#5870,#5880,#5890)) REPRESENTATION_CONTEXT
('',''));
#5910=UNCERTAINTY_MEASURE_WITH_UNIT(LENGTH_MEASURE(1.E-6),#5870,
'distance_accuracy_value','maximum gap value');
#5920=ADVANCED_BREP_SHAPE_REPRESENTATION('',(#5740,#5700),#5900);
#5930=SHAPE_DEFINITION_REPRESENTATION(#5830,#5920);
#5940=COLOUR_RGB('',0.639215707778931,0.639215707778931,
0.639215707778931);
#5950=FILL_AREA_STYLE_COLOUR('',#5940);
#5960=FILL_AREA_STYLE('',(#5950));
#5970=SURFACE_STYLE_FILL_AREA(#5960);
#5980=SURFACE_SIDE_STYLE('',(#5970));
#5990=SURFACE_STYLE_USAGE(.BOTH.,#5980);
#6000=PRESENTATION_STYLE_ASSIGNMENT((#5990));
#6010=STYLED_ITEM('',(#6000),#5700);
#6020=OVER_RIDING_STYLED_ITEM('',(#570),#500,#6010);
#6030=OVER_RIDING_STYLED_ITEM('',(#1710),#1640,#6010);
#6040=OVER_RIDING_STYLED_ITEM('',(#2850),#2780,#6010);
#6050=OVER_RIDING_STYLED_ITEM('',(#3140),#3070,#6010);
#6060=OVER_RIDING_STYLED_ITEM('',(#3380),#3310,#6010);
#6070=OVER_RIDING_STYLED_ITEM('',(#3620),#3550,#6010);
#6080=OVER_RIDING_STYLED_ITEM('',(#3860),#3790,#6010);
#6090=OVER_RIDING_STYLED_ITEM('',(#4100),#4030,#6010);
#6100=OVER_RIDING_STYLED_ITEM('',(#4340),#4270,#6010);
#6110=OVER_RIDING_STYLED_ITEM('',(#4580),#4510,#6010);
#6120=OVER_RIDING_STYLED_ITEM('',(#4820),#4750,#6010);
#6130=OVER_RIDING_STYLED_ITEM('',(#5060),#4990,#6010);
#6140=OVER_RIDING_STYLED_ITEM('',(#5300),#5230,#6010);
#6150=OVER_RIDING_STYLED_ITEM('',(#5490),#5420,#6010);
#6160=OVER_RIDING_STYLED_ITEM('',(#5680),#5610,#6010);
#6170=DRAUGHTING_MODEL('',(#6010,#6020,#6030,#6040,#6050,#6060,#6070,
#6080,#6090,#6100,#6110,#6120,#6130,#6140,#6150,#6160),#5900);
#6180=CARTESIAN_POINT('',(28.,0.,-19.));
#6190=DIRECTION('',(1.,0.,-7.35522753814166E-16));
#6200=DIRECTION('',(7.35522753814166E-16,0.,1.));
#6210=AXIS2_PLACEMENT_3D('',#6180,#6190,#6200);
#6220=ITEM_DEFINED_TRANSFORMATION(
'Winkelprofil-MMS-44_48x48mm_44.0025.1_PX171813','',#5740,#6210);
#6230=APPLICATION_CONTEXT(' ');
#6240=APPLICATION_PROTOCOL_DEFINITION(' ','automotive_design',1998,#6230
);
#6250=PRODUCT_CONTEXT('',#6230,'mechanical');
#6260=PRODUCT_DEFINITION_CONTEXT('part definition',#6230,'design');
#6270=PRODUCT('Winkelprofil-MMS-44_48x48mm_44.0025.1_PX171813',
'Winkelprofil-MMS-44_48x48mm_44.0025.1_PX171813','',(#6250));
#6280=PRODUCT_RELATED_PRODUCT_CATEGORY('part',' ',(#6270));
#6290=PRODUCT_DEFINITION_FORMATION_WITH_SPECIFIED_SOURCE('','',#6270,
.BOUGHT.);
#6300=PRODUCT_DEFINITION('',' ',#6290,#6260);
#6310=PRODUCT_DEFINITION_SHAPE('','',#6300);
#6320=DIMENSIONAL_EXPONENTS(1.,0.,0.,0.,0.,0.,0.);
#6330=DIMENSIONAL_EXPONENTS(0.,0.,0.,0.,0.,0.,0.);
#6340=DIMENSIONAL_EXPONENTS(0.,0.,0.,0.,0.,0.,0.);
#6350=(LENGTH_UNIT() NAMED_UNIT(*) SI_UNIT(.MILLI.,.METRE.));
#6360=(NAMED_UNIT(*) PLANE_ANGLE_UNIT() SI_UNIT($,.RADIAN.));
#6370=(NAMED_UNIT(*) SI_UNIT($,.STERADIAN.) SOLID_ANGLE_UNIT());
#6380=(GEOMETRIC_REPRESENTATION_CONTEXT(3) 
GLOBAL_UNCERTAINTY_ASSIGNED_CONTEXT((#6390)) 
GLOBAL_UNIT_ASSIGNED_CONTEXT((#6350,#6360,#6370)) REPRESENTATION_CONTEXT
('',''));
#6390=UNCERTAINTY_MEASURE_WITH_UNIT(LENGTH_MEASURE(1.E-6),#6350,
'distance_accuracy_value','maximum gap value');
#6400=SHAPE_REPRESENTATION('',(#5740,#6210),#6380);
#6410=SHAPE_DEFINITION_REPRESENTATION(#6310,#6400);
#6420=(REPRESENTATION_RELATIONSHIP('','',#5920,#6400) 
REPRESENTATION_RELATIONSHIP_WITH_TRANSFORMATION(#6220) 
SHAPE_REPRESENTATION_RELATIONSHIP());
#6430=NEXT_ASSEMBLY_USAGE_OCCURRENCE('1','',
'Winkelprofil-MMS-44_48x48mm_44.0025.1_PX171813',#6300,#5820,'');
#6440=PRODUCT_DEFINITION_SHAPE('','',#6430);
#6450=CONTEXT_DEPENDENT_SHAPE_REPRESENTATION(#6420,#6440);
ENDSEC;
END-ISO-10303-21;
