ISO-10303-21;
HEADER;
FILE_DESCRIPTION(('Creo Elements/Direct Modeling STEP Export'),'2;1');
FILE_NAME(
'//KR-CAD2/PhoenixTemp/karl.letzgus/Konvertierung/44.0180.1_Winkelplatte
-MMS-44_3mm-45\S\0-chem-vernickelt.stp','2022-03-21T 8:57:10',(''),(''),
'PTC Creo Elements/Direct Modeling STEP processor for AP214 (Solid Model
)',
'PTC Creo Elements/Direct Modeling 19.0C  15-Aug-2015 (C) Parametric Tec
hnology GmbH','');
FILE_SCHEMA(('AUTOMOTIVE_DESIGN { 1 0 10303 214 1 1 1 1 }'));
ENDSEC;
DATA;
#10=CARTESIAN_POINT('',(0.,0.,0.));
#20=DIRECTION('',(0.,0.,1.));
#30=DIRECTION('',(1.,0.,0.));
#40=AXIS2_PLACEMENT_3D('',#10,#20,#30);
#50=PLANE('',#40);
#60=CARTESIAN_POINT('',(60.,17.5,0.));
#70=DIRECTION('',(0.,0.,1.));
#80=DIRECTION('',(1.,0.,0.));
#90=AXIS2_PLACEMENT_3D('',#60,#70,#80);
#100=CIRCLE('',#90,4.5);
#110=CARTESIAN_POINT('',(64.5,17.5,0.));
#120=VERTEX_POINT('',#110);
#130=CARTESIAN_POINT('',(55.5,17.5,0.));
#140=VERTEX_POINT('',#130);
#150=EDGE_CURVE('',#120,#140,#100,.T.);
#160=ORIENTED_EDGE('',*,*,#150,.F.);
#170=EDGE_CURVE('',#140,#120,#100,.T.);
#180=ORIENTED_EDGE('',*,*,#170,.F.);
#190=EDGE_LOOP('',(#180,#160));
#200=FACE_BOUND('',#190,.T.);
#210=CARTESIAN_POINT('',(127.071067811865,21.2132034355965,0.));
#220=DIRECTION('',(0.,0.,1.));
#230=DIRECTION('',(1.,0.,0.));
#240=AXIS2_PLACEMENT_3D('',#210,#220,#230);
#250=CIRCLE('',#240,4.5);
#260=CARTESIAN_POINT('',(131.571067811865,21.2132034355965,0.));
#270=VERTEX_POINT('',#260);
#280=CARTESIAN_POINT('',(122.571067811865,21.2132034355965,0.));
#290=VERTEX_POINT('',#280);
#300=EDGE_CURVE('',#270,#290,#250,.T.);
#310=ORIENTED_EDGE('',*,*,#300,.F.);
#320=EDGE_CURVE('',#290,#270,#250,.T.);
#330=ORIENTED_EDGE('',*,*,#320,.F.);
#340=EDGE_LOOP('',(#330,#310));
#350=FACE_BOUND('',#340,.T.);
#360=CARTESIAN_POINT('',(103.382990642116,44.9012806053458,0.));
#370=DIRECTION('',(0.,0.,1.));
#380=DIRECTION('',(1.,0.,0.));
#390=AXIS2_PLACEMENT_3D('',#360,#370,#380);
#400=CIRCLE('',#390,4.5);
#410=CARTESIAN_POINT('',(107.882990642116,44.9012806053458,0.));
#420=VERTEX_POINT('',#410);
#430=CARTESIAN_POINT('',(98.8829906421161,44.9012806053458,0.));
#440=VERTEX_POINT('',#430);
#450=EDGE_CURVE('',#420,#440,#400,.T.);
#460=ORIENTED_EDGE('',*,*,#450,.F.);
#470=EDGE_CURVE('',#440,#420,#400,.T.);
#480=ORIENTED_EDGE('',*,*,#470,.F.);
#490=EDGE_LOOP('',(#480,#460));
#500=FACE_BOUND('',#490,.T.);
#510=CARTESIAN_POINT('',(10.,17.5,0.));
#520=DIRECTION('',(0.,0.,1.));
#530=DIRECTION('',(1.,0.,0.));
#540=AXIS2_PLACEMENT_3D('',#510,#520,#530);
#550=CIRCLE('',#540,4.5);
#560=CARTESIAN_POINT('',(14.5,17.5,0.));
#570=VERTEX_POINT('',#560);
#580=CARTESIAN_POINT('',(5.5,17.5,0.));
#590=VERTEX_POINT('',#580);
#600=EDGE_CURVE('',#570,#590,#550,.T.);
#610=ORIENTED_EDGE('',*,*,#600,.F.);
#620=EDGE_CURVE('',#590,#570,#550,.T.);
#630=ORIENTED_EDGE('',*,*,#620,.F.);
#640=EDGE_LOOP('',(#630,#610));
#650=FACE_BOUND('',#640,.T.);
#660=CARTESIAN_POINT('',(109.746951672795,65.4073772597556,0.));
#670=DIRECTION('',(-0.707106781186548,-0.707106781186547,0.));
#680=VECTOR('',#670,1.);
#690=LINE('',#660,#680);
#700=CARTESIAN_POINT('',(107.625631329235,63.286056916196,0.));
#710=VERTEX_POINT('',#700);
#720=CARTESIAN_POINT('',(79.3395744130394,35.,0.));
#730=VERTEX_POINT('',#720);
#740=EDGE_CURVE('',#710,#730,#690,.T.);
#750=ORIENTED_EDGE('',*,*,#740,.T.);
#760=CARTESIAN_POINT('',(109.746951672795,61.1647365726364,0.));
#770=DIRECTION('',(0.,0.,1.));
#780=DIRECTION('',(1.,0.,0.));
#790=AXIS2_PLACEMENT_3D('',#760,#770,#780);
#800=CIRCLE('',#790,3.);
#810=CARTESIAN_POINT('',(111.868272016355,63.286056916196,0.));
#820=VERTEX_POINT('',#810);
#830=EDGE_CURVE('',#820,#710,#800,.T.);
#840=ORIENTED_EDGE('',*,*,#830,.T.);
#850=CARTESIAN_POINT('',(147.577164466275,27.5771644662753,0.));
#860=DIRECTION('',(-0.707106781186547,0.707106781186548,0.));
#870=VECTOR('',#860,1.);
#880=LINE('',#850,#870);
#890=CARTESIAN_POINT('',(145.455844122716,29.698484809835,0.));
#900=VERTEX_POINT('',#890);
#910=EDGE_CURVE('',#900,#820,#880,.T.);
#920=ORIENTED_EDGE('',*,*,#910,.T.);
#930=CARTESIAN_POINT('',(143.334523779156,27.5771644662753,0.));
#940=DIRECTION('',(0.,0.,1.));
#950=DIRECTION('',(1.,0.,0.));
#960=AXIS2_PLACEMENT_3D('',#930,#940,#950);
#970=CIRCLE('',#960,3.);
#980=CARTESIAN_POINT('',(145.455844122716,25.4558441227157,0.));
#990=VERTEX_POINT('',#980);
#1000=EDGE_CURVE('',#990,#900,#970,.T.);
#1010=ORIENTED_EDGE('',*,*,#1000,.T.);
#1020=CARTESIAN_POINT('',(120.,0.,0.));
#1030=DIRECTION('',(0.707106781186548,0.707106781186547,0.));
#1040=VECTOR('',#1030,1.);
#1050=LINE('',#1020,#1040);
#1060=CARTESIAN_POINT('',(120.87867965644,0.878679656440359,0.));
#1070=VERTEX_POINT('',#1060);
#1080=EDGE_CURVE('',#1070,#990,#1050,.T.);
#1090=ORIENTED_EDGE('',*,*,#1080,.T.);
#1100=CARTESIAN_POINT('',(118.757359312881,3.,0.));
#1110=DIRECTION('',(0.,0.,1.));
#1120=DIRECTION('',(1.,0.,0.));
#1130=AXIS2_PLACEMENT_3D('',#1100,#1110,#1120);
#1140=CIRCLE('',#1130,3.);
#1150=CARTESIAN_POINT('',(118.757359312881,4.44089209850063E-16,0.));
#1160=VERTEX_POINT('',#1150);
#1170=EDGE_CURVE('',#1160,#1070,#1140,.T.);
#1180=ORIENTED_EDGE('',*,*,#1170,.T.);
#1190=CARTESIAN_POINT('',(0.,0.,0.));
#1200=DIRECTION('',(1.,0.,0.));
#1210=VECTOR('',#1200,1.);
#1220=LINE('',#1190,#1210);
#1230=CARTESIAN_POINT('',(3.,0.,0.));
#1240=VERTEX_POINT('',#1230);
#1250=EDGE_CURVE('',#1240,#1160,#1220,.T.);
#1260=ORIENTED_EDGE('',*,*,#1250,.T.);
#1270=CARTESIAN_POINT('',(3.,3.,0.));
#1280=DIRECTION('',(0.,0.,1.));
#1290=DIRECTION('',(1.,0.,0.));
#1300=AXIS2_PLACEMENT_3D('',#1270,#1280,#1290);
#1310=CIRCLE('',#1300,3.);
#1320=CARTESIAN_POINT('',(0.,3.,0.));
#1330=VERTEX_POINT('',#1320);
#1340=EDGE_CURVE('',#1330,#1240,#1310,.T.);
#1350=ORIENTED_EDGE('',*,*,#1340,.T.);
#1360=CARTESIAN_POINT('',(0.,0.,0.));
#1370=DIRECTION('',(0.,1.,0.));
#1380=VECTOR('',#1370,1.);
#1390=LINE('',#1360,#1380);
#1400=CARTESIAN_POINT('',(0.,32.,0.));
#1410=VERTEX_POINT('',#1400);
#1420=EDGE_CURVE('',#1330,#1410,#1390,.T.);
#1430=ORIENTED_EDGE('',*,*,#1420,.F.);
#1440=CARTESIAN_POINT('',(3.,32.,0.));
#1450=DIRECTION('',(0.,0.,1.));
#1460=DIRECTION('',(1.,0.,0.));
#1470=AXIS2_PLACEMENT_3D('',#1440,#1450,#1460);
#1480=CIRCLE('',#1470,3.);
#1490=CARTESIAN_POINT('',(3.,35.,0.));
#1500=VERTEX_POINT('',#1490);
#1510=EDGE_CURVE('',#1500,#1410,#1480,.T.);
#1520=ORIENTED_EDGE('',*,*,#1510,.T.);
#1530=CARTESIAN_POINT('',(79.3395744130394,35.,0.));
#1540=DIRECTION('',(-1.,0.,0.));
#1550=VECTOR('',#1540,1.);
#1560=LINE('',#1530,#1550);
#1570=EDGE_CURVE('',#730,#1500,#1560,.T.);
#1580=ORIENTED_EDGE('',*,*,#1570,.T.);
#1590=EDGE_LOOP('',(#1580,#1520,#1430,#1350,#1260,#1180,#1090,#1010,#920
,#840,#750));
#1600=FACE_OUTER_BOUND('',#1590,.T.);
#1610=ADVANCED_FACE('',(#200,#350,#500,#650,#1600),#50,.T.);
#1620=CARTESIAN_POINT('',(0.,0.,-3.));
#1630=DIRECTION('',(0.,0.,1.));
#1640=DIRECTION('',(1.,0.,0.));
#1650=AXIS2_PLACEMENT_3D('',#1620,#1630,#1640);
#1660=PLANE('',#1650);
#1670=CARTESIAN_POINT('',(60.,17.5,-3.));
#1680=DIRECTION('',(0.,0.,1.));
#1690=DIRECTION('',(1.,0.,0.));
#1700=AXIS2_PLACEMENT_3D('',#1670,#1680,#1690);
#1710=CIRCLE('',#1700,4.5);
#1720=CARTESIAN_POINT('',(64.5,17.5,-3.));
#1730=VERTEX_POINT('',#1720);
#1740=CARTESIAN_POINT('',(55.5,17.5,-3.));
#1750=VERTEX_POINT('',#1740);
#1760=EDGE_CURVE('',#1730,#1750,#1710,.T.);
#1770=ORIENTED_EDGE('',*,*,#1760,.T.);
#1780=EDGE_CURVE('',#1750,#1730,#1710,.T.);
#1790=ORIENTED_EDGE('',*,*,#1780,.T.);
#1800=EDGE_LOOP('',(#1790,#1770));
#1810=FACE_BOUND('',#1800,.T.);
#1820=CARTESIAN_POINT('',(127.071067811865,21.2132034355965,-3.));
#1830=DIRECTION('',(0.,0.,1.));
#1840=DIRECTION('',(1.,0.,0.));
#1850=AXIS2_PLACEMENT_3D('',#1820,#1830,#1840);
#1860=CIRCLE('',#1850,4.5);
#1870=CARTESIAN_POINT('',(131.571067811865,21.2132034355965,-3.));
#1880=VERTEX_POINT('',#1870);
#1890=CARTESIAN_POINT('',(122.571067811865,21.2132034355965,-3.));
#1900=VERTEX_POINT('',#1890);
#1910=EDGE_CURVE('',#1880,#1900,#1860,.T.);
#1920=ORIENTED_EDGE('',*,*,#1910,.T.);
#1930=EDGE_CURVE('',#1900,#1880,#1860,.T.);
#1940=ORIENTED_EDGE('',*,*,#1930,.T.);
#1950=EDGE_LOOP('',(#1940,#1920));
#1960=FACE_BOUND('',#1950,.T.);
#1970=CARTESIAN_POINT('',(103.382990642116,44.9012806053458,-3.));
#1980=DIRECTION('',(0.,0.,1.));
#1990=DIRECTION('',(1.,0.,0.));
#2000=AXIS2_PLACEMENT_3D('',#1970,#1980,#1990);
#2010=CIRCLE('',#2000,4.5);
#2020=CARTESIAN_POINT('',(107.882990642116,44.9012806053458,-3.));
#2030=VERTEX_POINT('',#2020);
#2040=CARTESIAN_POINT('',(98.8829906421161,44.9012806053458,-3.));
#2050=VERTEX_POINT('',#2040);
#2060=EDGE_CURVE('',#2030,#2050,#2010,.T.);
#2070=ORIENTED_EDGE('',*,*,#2060,.T.);
#2080=EDGE_CURVE('',#2050,#2030,#2010,.T.);
#2090=ORIENTED_EDGE('',*,*,#2080,.T.);
#2100=EDGE_LOOP('',(#2090,#2070));
#2110=FACE_BOUND('',#2100,.T.);
#2120=CARTESIAN_POINT('',(10.,17.5,-3.));
#2130=DIRECTION('',(0.,0.,1.));
#2140=DIRECTION('',(1.,0.,0.));
#2150=AXIS2_PLACEMENT_3D('',#2120,#2130,#2140);
#2160=CIRCLE('',#2150,4.5);
#2170=CARTESIAN_POINT('',(14.5,17.5,-3.));
#2180=VERTEX_POINT('',#2170);
#2190=CARTESIAN_POINT('',(5.5,17.5,-3.));
#2200=VERTEX_POINT('',#2190);
#2210=EDGE_CURVE('',#2180,#2200,#2160,.T.);
#2220=ORIENTED_EDGE('',*,*,#2210,.T.);
#2230=EDGE_CURVE('',#2200,#2180,#2160,.T.);
#2240=ORIENTED_EDGE('',*,*,#2230,.T.);
#2250=EDGE_LOOP('',(#2240,#2220));
#2260=FACE_BOUND('',#2250,.T.);
#2270=CARTESIAN_POINT('',(79.3395744130394,35.,-3.));
#2280=DIRECTION('',(-1.,0.,0.));
#2290=VECTOR('',#2280,1.);
#2300=LINE('',#2270,#2290);
#2310=CARTESIAN_POINT('',(79.3395744130394,35.,-3.));
#2320=VERTEX_POINT('',#2310);
#2330=CARTESIAN_POINT('',(3.,35.,-3.));
#2340=VERTEX_POINT('',#2330);
#2350=EDGE_CURVE('',#2320,#2340,#2300,.T.);
#2360=ORIENTED_EDGE('',*,*,#2350,.F.);
#2370=CARTESIAN_POINT('',(3.,32.,-3.));
#2380=DIRECTION('',(0.,0.,1.));
#2390=DIRECTION('',(1.,0.,0.));
#2400=AXIS2_PLACEMENT_3D('',#2370,#2380,#2390);
#2410=CIRCLE('',#2400,3.);
#2420=CARTESIAN_POINT('',(0.,32.,-3.));
#2430=VERTEX_POINT('',#2420);
#2440=EDGE_CURVE('',#2340,#2430,#2410,.T.);
#2450=ORIENTED_EDGE('',*,*,#2440,.F.);
#2460=CARTESIAN_POINT('',(0.,0.,-3.));
#2470=DIRECTION('',(0.,1.,0.));
#2480=VECTOR('',#2470,1.);
#2490=LINE('',#2460,#2480);
#2500=CARTESIAN_POINT('',(0.,3.,-3.));
#2510=VERTEX_POINT('',#2500);
#2520=EDGE_CURVE('',#2510,#2430,#2490,.T.);
#2530=ORIENTED_EDGE('',*,*,#2520,.T.);
#2540=CARTESIAN_POINT('',(3.,3.,-3.));
#2550=DIRECTION('',(0.,0.,1.));
#2560=DIRECTION('',(1.,0.,0.));
#2570=AXIS2_PLACEMENT_3D('',#2540,#2550,#2560);
#2580=CIRCLE('',#2570,3.);
#2590=CARTESIAN_POINT('',(3.,0.,-3.));
#2600=VERTEX_POINT('',#2590);
#2610=EDGE_CURVE('',#2510,#2600,#2580,.T.);
#2620=ORIENTED_EDGE('',*,*,#2610,.F.);
#2630=CARTESIAN_POINT('',(0.,0.,-3.));
#2640=DIRECTION('',(1.,0.,0.));
#2650=VECTOR('',#2640,1.);
#2660=LINE('',#2630,#2650);
#2670=CARTESIAN_POINT('',(118.757359312881,4.44089209850063E-16,-3.));
#2680=VERTEX_POINT('',#2670);
#2690=EDGE_CURVE('',#2600,#2680,#2660,.T.);
#2700=ORIENTED_EDGE('',*,*,#2690,.F.);
#2710=CARTESIAN_POINT('',(118.757359312881,3.,-3.));
#2720=DIRECTION('',(0.,0.,1.));
#2730=DIRECTION('',(1.,0.,0.));
#2740=AXIS2_PLACEMENT_3D('',#2710,#2720,#2730);
#2750=CIRCLE('',#2740,3.);
#2760=CARTESIAN_POINT('',(120.87867965644,0.878679656440359,-3.));
#2770=VERTEX_POINT('',#2760);
#2780=EDGE_CURVE('',#2680,#2770,#2750,.T.);
#2790=ORIENTED_EDGE('',*,*,#2780,.F.);
#2800=CARTESIAN_POINT('',(120.,0.,-3.));
#2810=DIRECTION('',(0.707106781186548,0.707106781186547,0.));
#2820=VECTOR('',#2810,1.);
#2830=LINE('',#2800,#2820);
#2840=CARTESIAN_POINT('',(145.455844122716,25.4558441227157,-3.));
#2850=VERTEX_POINT('',#2840);
#2860=EDGE_CURVE('',#2770,#2850,#2830,.T.);
#2870=ORIENTED_EDGE('',*,*,#2860,.F.);
#2880=CARTESIAN_POINT('',(143.334523779156,27.5771644662753,-3.));
#2890=DIRECTION('',(0.,0.,1.));
#2900=DIRECTION('',(1.,0.,0.));
#2910=AXIS2_PLACEMENT_3D('',#2880,#2890,#2900);
#2920=CIRCLE('',#2910,3.);
#2930=CARTESIAN_POINT('',(145.455844122716,29.698484809835,-3.));
#2940=VERTEX_POINT('',#2930);
#2950=EDGE_CURVE('',#2850,#2940,#2920,.T.);
#2960=ORIENTED_EDGE('',*,*,#2950,.F.);
#2970=CARTESIAN_POINT('',(147.577164466275,27.5771644662753,-3.));
#2980=DIRECTION('',(-0.707106781186547,0.707106781186548,0.));
#2990=VECTOR('',#2980,1.);
#3000=LINE('',#2970,#2990);
#3010=CARTESIAN_POINT('',(111.868272016355,63.286056916196,-3.));
#3020=VERTEX_POINT('',#3010);
#3030=EDGE_CURVE('',#2940,#3020,#3000,.T.);
#3040=ORIENTED_EDGE('',*,*,#3030,.F.);
#3050=CARTESIAN_POINT('',(109.746951672795,61.1647365726364,-3.));
#3060=DIRECTION('',(0.,0.,1.));
#3070=DIRECTION('',(1.,0.,0.));
#3080=AXIS2_PLACEMENT_3D('',#3050,#3060,#3070);
#3090=CIRCLE('',#3080,3.);
#3100=CARTESIAN_POINT('',(107.625631329235,63.286056916196,-3.));
#3110=VERTEX_POINT('',#3100);
#3120=EDGE_CURVE('',#3020,#3110,#3090,.T.);
#3130=ORIENTED_EDGE('',*,*,#3120,.F.);
#3140=CARTESIAN_POINT('',(109.746951672795,65.4073772597556,-3.));
#3150=DIRECTION('',(-0.707106781186548,-0.707106781186547,0.));
#3160=VECTOR('',#3150,1.);
#3170=LINE('',#3140,#3160);
#3180=EDGE_CURVE('',#3110,#2320,#3170,.T.);
#3190=ORIENTED_EDGE('',*,*,#3180,.F.);
#3200=EDGE_LOOP('',(#3190,#3130,#3040,#2960,#2870,#2790,#2700,#2620,
#2530,#2450,#2360));
#3210=FACE_OUTER_BOUND('',#3200,.T.);
#3220=ADVANCED_FACE('',(#1810,#1960,#2110,#2260,#3210),#1660,.F.);
#3230=CARTESIAN_POINT('',(0.,35.,0.));
#3240=DIRECTION('',(-0.,-1.,-0.));
#3250=DIRECTION('',(-1.,0.,0.));
#3260=AXIS2_PLACEMENT_3D('',#3230,#3240,#3250);
#3270=PLANE('',#3260);
#3280=ORIENTED_EDGE('',*,*,#2350,.T.);
#3290=CARTESIAN_POINT('',(79.3395744130394,35.,0.));
#3300=DIRECTION('',(0.,0.,-1.));
#3310=VECTOR('',#3300,1.);
#3320=LINE('',#3290,#3310);
#3330=EDGE_CURVE('',#730,#2320,#3320,.T.);
#3340=ORIENTED_EDGE('',*,*,#3330,.T.);
#3350=ORIENTED_EDGE('',*,*,#1570,.F.);
#3360=CARTESIAN_POINT('',(3.,35.,0.));
#3370=DIRECTION('',(0.,0.,-1.));
#3380=VECTOR('',#3370,1.);
#3390=LINE('',#3360,#3380);
#3400=EDGE_CURVE('',#1500,#2340,#3390,.T.);
#3410=ORIENTED_EDGE('',*,*,#3400,.F.);
#3420=EDGE_LOOP('',(#3410,#3350,#3340,#3280));
#3430=FACE_OUTER_BOUND('',#3420,.T.);
#3440=ADVANCED_FACE('',(#3430),#3270,.F.);
#3450=CARTESIAN_POINT('',(0.,0.,0.));
#3460=DIRECTION('',(1.,0.,0.));
#3470=DIRECTION('',(0.,-1.,0.));
#3480=AXIS2_PLACEMENT_3D('',#3450,#3460,#3470);
#3490=PLANE('',#3480);
#3500=ORIENTED_EDGE('',*,*,#2520,.F.);
#3510=CARTESIAN_POINT('',(0.,32.,0.));
#3520=DIRECTION('',(0.,0.,-1.));
#3530=VECTOR('',#3520,1.);
#3540=LINE('',#3510,#3530);
#3550=EDGE_CURVE('',#1410,#2430,#3540,.T.);
#3560=ORIENTED_EDGE('',*,*,#3550,.T.);
#3570=ORIENTED_EDGE('',*,*,#1420,.T.);
#3580=CARTESIAN_POINT('',(0.,3.,0.));
#3590=DIRECTION('',(0.,0.,-1.));
#3600=VECTOR('',#3590,1.);
#3610=LINE('',#3580,#3600);
#3620=EDGE_CURVE('',#1330,#2510,#3610,.T.);
#3630=ORIENTED_EDGE('',*,*,#3620,.F.);
#3640=EDGE_LOOP('',(#3630,#3570,#3560,#3500));
#3650=FACE_OUTER_BOUND('',#3640,.T.);
#3660=ADVANCED_FACE('',(#3650),#3490,.F.);
#3670=CARTESIAN_POINT('',(120.,0.,0.));
#3680=DIRECTION('',(-0.,1.,0.));
#3690=DIRECTION('',(1.,0.,0.));
#3700=AXIS2_PLACEMENT_3D('',#3670,#3680,#3690);
#3710=PLANE('',#3700);
#3720=ORIENTED_EDGE('',*,*,#2690,.T.);
#3730=CARTESIAN_POINT('',(3.,0.,0.));
#3740=DIRECTION('',(0.,0.,-1.));
#3750=VECTOR('',#3740,1.);
#3760=LINE('',#3730,#3750);
#3770=EDGE_CURVE('',#1240,#2600,#3760,.T.);
#3780=ORIENTED_EDGE('',*,*,#3770,.T.);
#3790=ORIENTED_EDGE('',*,*,#1250,.F.);
#3800=CARTESIAN_POINT('',(118.757359312881,4.44089209850063E-16,0.));
#3810=DIRECTION('',(0.,0.,-1.));
#3820=VECTOR('',#3810,1.);
#3830=LINE('',#3800,#3820);
#3840=EDGE_CURVE('',#1160,#2680,#3830,.T.);
#3850=ORIENTED_EDGE('',*,*,#3840,.F.);
#3860=EDGE_LOOP('',(#3850,#3790,#3780,#3720));
#3870=FACE_OUTER_BOUND('',#3860,.T.);
#3880=ADVANCED_FACE('',(#3870),#3710,.F.);
#3890=CARTESIAN_POINT('',(147.577164466275,27.5771644662753,0.));
#3900=DIRECTION('',(-0.707106781186547,0.707106781186548,0.));
#3910=DIRECTION('',(0.707106781186548,0.707106781186547,0.));
#3920=AXIS2_PLACEMENT_3D('',#3890,#3900,#3910);
#3930=PLANE('',#3920);
#3940=ORIENTED_EDGE('',*,*,#2860,.T.);
#3950=CARTESIAN_POINT('',(120.87867965644,0.878679656440356,0.));
#3960=DIRECTION('',(0.,0.,-1.));
#3970=VECTOR('',#3960,1.);
#3980=LINE('',#3950,#3970);
#3990=EDGE_CURVE('',#1070,#2770,#3980,.T.);
#4000=ORIENTED_EDGE('',*,*,#3990,.T.);
#4010=ORIENTED_EDGE('',*,*,#1080,.F.);
#4020=CARTESIAN_POINT('',(145.455844122716,25.4558441227157,0.));
#4030=DIRECTION('',(0.,0.,-1.));
#4040=VECTOR('',#4030,1.);
#4050=LINE('',#4020,#4040);
#4060=EDGE_CURVE('',#990,#2850,#4050,.T.);
#4070=ORIENTED_EDGE('',*,*,#4060,.F.);
#4080=EDGE_LOOP('',(#4070,#4010,#4000,#3940));
#4090=FACE_OUTER_BOUND('',#4080,.T.);
#4100=ADVANCED_FACE('',(#4090),#3930,.F.);
#4110=CARTESIAN_POINT('',(109.746951672795,65.4073772597556,0.));
#4120=DIRECTION('',(-0.707106781186548,-0.707106781186547,-0.));
#4130=DIRECTION('',(-0.707106781186547,0.707106781186548,0.));
#4140=AXIS2_PLACEMENT_3D('',#4110,#4120,#4130);
#4150=PLANE('',#4140);
#4160=ORIENTED_EDGE('',*,*,#3030,.T.);
#4170=CARTESIAN_POINT('',(145.455844122716,29.698484809835,0.));
#4180=DIRECTION('',(0.,0.,-1.));
#4190=VECTOR('',#4180,1.);
#4200=LINE('',#4170,#4190);
#4210=EDGE_CURVE('',#900,#2940,#4200,.T.);
#4220=ORIENTED_EDGE('',*,*,#4210,.T.);
#4230=ORIENTED_EDGE('',*,*,#910,.F.);
#4240=CARTESIAN_POINT('',(111.868272016355,63.286056916196,0.));
#4250=DIRECTION('',(0.,0.,-1.));
#4260=VECTOR('',#4250,1.);
#4270=LINE('',#4240,#4260);
#4280=EDGE_CURVE('',#820,#3020,#4270,.T.);
#4290=ORIENTED_EDGE('',*,*,#4280,.F.);
#4300=EDGE_LOOP('',(#4290,#4230,#4220,#4160));
#4310=FACE_OUTER_BOUND('',#4300,.T.);
#4320=ADVANCED_FACE('',(#4310),#4150,.F.);
#4330=CARTESIAN_POINT('',(79.3395744130394,35.,0.));
#4340=DIRECTION('',(0.707106781186547,-0.707106781186548,0.));
#4350=DIRECTION('',(-0.707106781186548,-0.707106781186547,0.));
#4360=AXIS2_PLACEMENT_3D('',#4330,#4340,#4350);
#4370=PLANE('',#4360);
#4380=ORIENTED_EDGE('',*,*,#740,.F.);
#4390=ORIENTED_EDGE('',*,*,#3330,.F.);
#4400=ORIENTED_EDGE('',*,*,#3180,.T.);
#4410=CARTESIAN_POINT('',(107.625631329235,63.286056916196,0.));
#4420=DIRECTION('',(0.,0.,-1.));
#4430=VECTOR('',#4420,1.);
#4440=LINE('',#4410,#4430);
#4450=EDGE_CURVE('',#710,#3110,#4440,.T.);
#4460=ORIENTED_EDGE('',*,*,#4450,.T.);
#4470=EDGE_LOOP('',(#4460,#4400,#4390,#4380));
#4480=FACE_OUTER_BOUND('',#4470,.T.);
#4490=ADVANCED_FACE('',(#4480),#4370,.F.);
#4500=CARTESIAN_POINT('',(3.,3.,0.));
#4510=DIRECTION('',(0.,0.,1.));
#4520=DIRECTION('',(1.,0.,0.));
#4530=AXIS2_PLACEMENT_3D('',#4500,#4510,#4520);
#4540=CYLINDRICAL_SURFACE('',#4530,3.);
#4550=ORIENTED_EDGE('',*,*,#1340,.F.);
#4560=ORIENTED_EDGE('',*,*,#3770,.F.);
#4570=ORIENTED_EDGE('',*,*,#2610,.T.);
#4580=ORIENTED_EDGE('',*,*,#3620,.T.);
#4590=EDGE_LOOP('',(#4580,#4570,#4560,#4550));
#4600=FACE_OUTER_BOUND('',#4590,.T.);
#4610=ADVANCED_FACE('',(#4600),#4540,.T.);
#4620=CARTESIAN_POINT('',(3.,32.,0.));
#4630=DIRECTION('',(0.,0.,1.));
#4640=DIRECTION('',(1.,0.,0.));
#4650=AXIS2_PLACEMENT_3D('',#4620,#4630,#4640);
#4660=CYLINDRICAL_SURFACE('',#4650,3.);
#4670=ORIENTED_EDGE('',*,*,#1510,.F.);
#4680=ORIENTED_EDGE('',*,*,#3550,.F.);
#4690=ORIENTED_EDGE('',*,*,#2440,.T.);
#4700=ORIENTED_EDGE('',*,*,#3400,.T.);
#4710=EDGE_LOOP('',(#4700,#4690,#4680,#4670));
#4720=FACE_OUTER_BOUND('',#4710,.T.);
#4730=ADVANCED_FACE('',(#4720),#4660,.T.);
#4740=CARTESIAN_POINT('',(143.334523779156,27.5771644662753,0.));
#4750=DIRECTION('',(0.,0.,1.));
#4760=DIRECTION('',(1.,0.,0.));
#4770=AXIS2_PLACEMENT_3D('',#4740,#4750,#4760);
#4780=CYLINDRICAL_SURFACE('',#4770,3.);
#4790=ORIENTED_EDGE('',*,*,#1000,.F.);
#4800=ORIENTED_EDGE('',*,*,#4210,.F.);
#4810=ORIENTED_EDGE('',*,*,#2950,.T.);
#4820=ORIENTED_EDGE('',*,*,#4060,.T.);
#4830=EDGE_LOOP('',(#4820,#4810,#4800,#4790));
#4840=FACE_OUTER_BOUND('',#4830,.T.);
#4850=ADVANCED_FACE('',(#4840),#4780,.T.);
#4860=CARTESIAN_POINT('',(109.746951672795,61.1647365726364,0.));
#4870=DIRECTION('',(0.,0.,1.));
#4880=DIRECTION('',(1.,0.,0.));
#4890=AXIS2_PLACEMENT_3D('',#4860,#4870,#4880);
#4900=CYLINDRICAL_SURFACE('',#4890,3.);
#4910=ORIENTED_EDGE('',*,*,#830,.F.);
#4920=ORIENTED_EDGE('',*,*,#4450,.F.);
#4930=ORIENTED_EDGE('',*,*,#3120,.T.);
#4940=ORIENTED_EDGE('',*,*,#4280,.T.);
#4950=EDGE_LOOP('',(#4940,#4930,#4920,#4910));
#4960=FACE_OUTER_BOUND('',#4950,.T.);
#4970=ADVANCED_FACE('',(#4960),#4900,.T.);
#4980=CARTESIAN_POINT('',(10.,17.5,0.));
#4990=DIRECTION('',(0.,0.,1.));
#5000=DIRECTION('',(1.,0.,0.));
#5010=AXIS2_PLACEMENT_3D('',#4980,#4990,#5000);
#5020=CYLINDRICAL_SURFACE('',#5010,4.5);
#5030=CARTESIAN_POINT('',(14.5,17.5,0.));
#5040=DIRECTION('',(0.,0.,1.));
#5050=VECTOR('',#5040,1.);
#5060=LINE('',#5030,#5050);
#5070=EDGE_CURVE('',#2180,#570,#5060,.T.);
#5080=ORIENTED_EDGE('',*,*,#5070,.F.);
#5090=ORIENTED_EDGE('',*,*,#620,.T.);
#5100=CARTESIAN_POINT('',(5.5,17.5,0.));
#5110=DIRECTION('',(0.,0.,1.));
#5120=VECTOR('',#5110,1.);
#5130=LINE('',#5100,#5120);
#5140=EDGE_CURVE('',#2200,#590,#5130,.T.);
#5150=ORIENTED_EDGE('',*,*,#5140,.T.);
#5160=ORIENTED_EDGE('',*,*,#2230,.F.);
#5170=EDGE_LOOP('',(#5160,#5150,#5090,#5080));
#5180=FACE_OUTER_BOUND('',#5170,.T.);
#5190=ADVANCED_FACE('',(#5180),#5020,.F.);
#5200=CARTESIAN_POINT('',(60.,17.5,0.));
#5210=DIRECTION('',(0.,0.,1.));
#5220=DIRECTION('',(1.,0.,0.));
#5230=AXIS2_PLACEMENT_3D('',#5200,#5210,#5220);
#5240=CYLINDRICAL_SURFACE('',#5230,4.5);
#5250=CARTESIAN_POINT('',(64.5,17.5,0.));
#5260=DIRECTION('',(0.,0.,1.));
#5270=VECTOR('',#5260,1.);
#5280=LINE('',#5250,#5270);
#5290=EDGE_CURVE('',#1730,#120,#5280,.T.);
#5300=ORIENTED_EDGE('',*,*,#5290,.F.);
#5310=ORIENTED_EDGE('',*,*,#170,.T.);
#5320=CARTESIAN_POINT('',(55.5,17.5,0.));
#5330=DIRECTION('',(0.,0.,1.));
#5340=VECTOR('',#5330,1.);
#5350=LINE('',#5320,#5340);
#5360=EDGE_CURVE('',#1750,#140,#5350,.T.);
#5370=ORIENTED_EDGE('',*,*,#5360,.T.);
#5380=ORIENTED_EDGE('',*,*,#1780,.F.);
#5390=EDGE_LOOP('',(#5380,#5370,#5310,#5300));
#5400=FACE_OUTER_BOUND('',#5390,.T.);
#5410=ADVANCED_FACE('',(#5400),#5240,.F.);
#5420=CARTESIAN_POINT('',(127.071067811865,21.2132034355965,0.));
#5430=DIRECTION('',(0.,0.,1.));
#5440=DIRECTION('',(1.,0.,0.));
#5450=AXIS2_PLACEMENT_3D('',#5420,#5430,#5440);
#5460=CYLINDRICAL_SURFACE('',#5450,4.5);
#5470=CARTESIAN_POINT('',(131.571067811865,21.2132034355965,0.));
#5480=DIRECTION('',(0.,0.,1.));
#5490=VECTOR('',#5480,1.);
#5500=LINE('',#5470,#5490);
#5510=EDGE_CURVE('',#1880,#270,#5500,.T.);
#5520=ORIENTED_EDGE('',*,*,#5510,.F.);
#5530=ORIENTED_EDGE('',*,*,#320,.T.);
#5540=CARTESIAN_POINT('',(122.571067811865,21.2132034355965,0.));
#5550=DIRECTION('',(0.,0.,1.));
#5560=VECTOR('',#5550,1.);
#5570=LINE('',#5540,#5560);
#5580=EDGE_CURVE('',#1900,#290,#5570,.T.);
#5590=ORIENTED_EDGE('',*,*,#5580,.T.);
#5600=ORIENTED_EDGE('',*,*,#1930,.F.);
#5610=EDGE_LOOP('',(#5600,#5590,#5530,#5520));
#5620=FACE_OUTER_BOUND('',#5610,.T.);
#5630=ADVANCED_FACE('',(#5620),#5460,.F.);
#5640=CARTESIAN_POINT('',(103.382990642116,44.9012806053458,0.));
#5650=DIRECTION('',(0.,0.,1.));
#5660=DIRECTION('',(1.,0.,0.));
#5670=AXIS2_PLACEMENT_3D('',#5640,#5650,#5660);
#5680=CYLINDRICAL_SURFACE('',#5670,4.5);
#5690=CARTESIAN_POINT('',(107.882990642116,44.9012806053458,0.));
#5700=DIRECTION('',(0.,0.,1.));
#5710=VECTOR('',#5700,1.);
#5720=LINE('',#5690,#5710);
#5730=EDGE_CURVE('',#2030,#420,#5720,.T.);
#5740=ORIENTED_EDGE('',*,*,#5730,.F.);
#5750=ORIENTED_EDGE('',*,*,#470,.T.);
#5760=CARTESIAN_POINT('',(98.8829906421161,44.9012806053458,0.));
#5770=DIRECTION('',(0.,0.,1.));
#5780=VECTOR('',#5770,1.);
#5790=LINE('',#5760,#5780);
#5800=EDGE_CURVE('',#2050,#440,#5790,.T.);
#5810=ORIENTED_EDGE('',*,*,#5800,.T.);
#5820=ORIENTED_EDGE('',*,*,#2080,.F.);
#5830=EDGE_LOOP('',(#5820,#5810,#5750,#5740));
#5840=FACE_OUTER_BOUND('',#5830,.T.);
#5850=ADVANCED_FACE('',(#5840),#5680,.F.);
#5860=CARTESIAN_POINT('',(118.757359312881,3.,0.));
#5870=DIRECTION('',(0.,0.,1.));
#5880=DIRECTION('',(1.,0.,0.));
#5890=AXIS2_PLACEMENT_3D('',#5860,#5870,#5880);
#5900=CYLINDRICAL_SURFACE('',#5890,3.);
#5910=ORIENTED_EDGE('',*,*,#1170,.F.);
#5920=ORIENTED_EDGE('',*,*,#3990,.F.);
#5930=ORIENTED_EDGE('',*,*,#2780,.T.);
#5940=ORIENTED_EDGE('',*,*,#3840,.T.);
#5950=EDGE_LOOP('',(#5940,#5930,#5920,#5910));
#5960=FACE_OUTER_BOUND('',#5950,.T.);
#5970=ADVANCED_FACE('',(#5960),#5900,.T.);
#5980=CARTESIAN_POINT('',(103.382990642116,44.9012806053458,0.));
#5990=DIRECTION('',(0.,0.,1.));
#6000=DIRECTION('',(1.,0.,0.));
#6010=AXIS2_PLACEMENT_3D('',#5980,#5990,#6000);
#6020=CYLINDRICAL_SURFACE('',#6010,4.5);
#6030=ORIENTED_EDGE('',*,*,#2060,.F.);
#6040=ORIENTED_EDGE('',*,*,#5800,.F.);
#6050=ORIENTED_EDGE('',*,*,#450,.T.);
#6060=ORIENTED_EDGE('',*,*,#5730,.T.);
#6070=EDGE_LOOP('',(#6060,#6050,#6040,#6030));
#6080=FACE_OUTER_BOUND('',#6070,.T.);
#6090=ADVANCED_FACE('',(#6080),#6020,.F.);
#6100=CARTESIAN_POINT('',(60.,17.5,0.));
#6110=DIRECTION('',(0.,0.,1.));
#6120=DIRECTION('',(1.,0.,0.));
#6130=AXIS2_PLACEMENT_3D('',#6100,#6110,#6120);
#6140=CYLINDRICAL_SURFACE('',#6130,4.5);
#6150=ORIENTED_EDGE('',*,*,#1760,.F.);
#6160=ORIENTED_EDGE('',*,*,#5360,.F.);
#6170=ORIENTED_EDGE('',*,*,#150,.T.);
#6180=ORIENTED_EDGE('',*,*,#5290,.T.);
#6190=EDGE_LOOP('',(#6180,#6170,#6160,#6150));
#6200=FACE_OUTER_BOUND('',#6190,.T.);
#6210=ADVANCED_FACE('',(#6200),#6140,.F.);
#6220=CARTESIAN_POINT('',(127.071067811865,21.2132034355965,0.));
#6230=DIRECTION('',(0.,0.,1.));
#6240=DIRECTION('',(1.,0.,0.));
#6250=AXIS2_PLACEMENT_3D('',#6220,#6230,#6240);
#6260=CYLINDRICAL_SURFACE('',#6250,4.5);
#6270=ORIENTED_EDGE('',*,*,#1910,.F.);
#6280=ORIENTED_EDGE('',*,*,#5580,.F.);
#6290=ORIENTED_EDGE('',*,*,#300,.T.);
#6300=ORIENTED_EDGE('',*,*,#5510,.T.);
#6310=EDGE_LOOP('',(#6300,#6290,#6280,#6270));
#6320=FACE_OUTER_BOUND('',#6310,.T.);
#6330=ADVANCED_FACE('',(#6320),#6260,.F.);
#6340=CARTESIAN_POINT('',(10.,17.5,0.));
#6350=DIRECTION('',(0.,0.,1.));
#6360=DIRECTION('',(1.,0.,0.));
#6370=AXIS2_PLACEMENT_3D('',#6340,#6350,#6360);
#6380=CYLINDRICAL_SURFACE('',#6370,4.5);
#6390=ORIENTED_EDGE('',*,*,#2210,.F.);
#6400=ORIENTED_EDGE('',*,*,#5140,.F.);
#6410=ORIENTED_EDGE('',*,*,#600,.T.);
#6420=ORIENTED_EDGE('',*,*,#5070,.T.);
#6430=EDGE_LOOP('',(#6420,#6410,#6400,#6390));
#6440=FACE_OUTER_BOUND('',#6430,.T.);
#6450=ADVANCED_FACE('',(#6440),#6380,.F.);
#6460=CLOSED_SHELL('',(#3440,#3660,#3880,#4100,#4320,#4490,#4610,#4730,
#4850,#4970,#5190,#5410,#5630,#5850,#5970,#6090,#6210,#6330,#6450,#3220,
#1610));
#6470=MANIFOLD_SOLID_BREP('',#6460);
#6480=CARTESIAN_POINT('',(0.,0.,0.));
#6490=DIRECTION('',(0.,0.,1.));
#6500=DIRECTION('',(1.,0.,0.));
#6510=AXIS2_PLACEMENT_3D('',#6480,#6490,#6500);
#6520=APPLICATION_CONTEXT(' ');
#6530=APPLICATION_PROTOCOL_DEFINITION(' ','automotive_design',1998,#6520
);
#6540=PRODUCT_CONTEXT('',#6520,'mechanical');
#6550=PRODUCT_DEFINITION_CONTEXT('part definition',#6520,'design');
#6560=PRODUCT(
'Winkelplatte-MMS-44_3mm-45\S\0-chem-vernickelt_44.0180.1_PX173309',
'Winkelplatte-MMS-44_3mm-45\S\0-chem-vernickelt_44.0180.1_PX173309','',(
#6540));
#6570=PRODUCT_RELATED_PRODUCT_CATEGORY('part',' ',(#6560));
#6580=PRODUCT_DEFINITION_FORMATION_WITH_SPECIFIED_SOURCE('','',#6560,
.BOUGHT.);
#6590=PRODUCT_DEFINITION('',' ',#6580,#6550);
#6600=PRODUCT_DEFINITION_SHAPE('','',#6590);
#6610=DIMENSIONAL_EXPONENTS(1.,0.,0.,0.,0.,0.,0.);
#6620=DIMENSIONAL_EXPONENTS(0.,0.,0.,0.,0.,0.,0.);
#6630=DIMENSIONAL_EXPONENTS(0.,0.,0.,0.,0.,0.,0.);
#6640=(LENGTH_UNIT() NAMED_UNIT(*) SI_UNIT(.MILLI.,.METRE.));
#6650=(NAMED_UNIT(*) PLANE_ANGLE_UNIT() SI_UNIT($,.RADIAN.));
#6660=(NAMED_UNIT(*) SI_UNIT($,.STERADIAN.) SOLID_ANGLE_UNIT());
#6670=(GEOMETRIC_REPRESENTATION_CONTEXT(3) 
GLOBAL_UNCERTAINTY_ASSIGNED_CONTEXT((#6680)) 
GLOBAL_UNIT_ASSIGNED_CONTEXT((#6640,#6650,#6660)) REPRESENTATION_CONTEXT
('',''));
#6680=UNCERTAINTY_MEASURE_WITH_UNIT(LENGTH_MEASURE(1.E-6),#6640,
'distance_accuracy_value','maximum gap value');
#6690=ADVANCED_BREP_SHAPE_REPRESENTATION('',(#6510,#6470),#6670);
#6700=SHAPE_DEFINITION_REPRESENTATION(#6600,#6690);
#6710=COLOUR_RGB('',0.690196096897125,0.886274576187134,1.);
#6720=FILL_AREA_STYLE_COLOUR('',#6710);
#6730=FILL_AREA_STYLE('',(#6720));
#6740=SURFACE_STYLE_FILL_AREA(#6730);
#6750=SURFACE_SIDE_STYLE('',(#6740));
#6760=SURFACE_STYLE_USAGE(.BOTH.,#6750);
#6770=PRESENTATION_STYLE_ASSIGNMENT((#6760));
#6780=STYLED_ITEM('',(#6770),#6470);
#6790=DRAUGHTING_MODEL('',(#6780),#6670);
ENDSEC;
END-ISO-10303-21;
