ISO-10303-21;
HEADER;
FILE_DESCRIPTION(('Creo Elements/Direct Modeling STEP Export'),'2;1');
FILE_NAME(
'//KR-CAD2/PhoenixTemp/karl.letzgus/Konvertierung/44.0185.2_Verbindungsl
asche-MMS-44_3mm-schwarz.stp','2022-03-21T 8:57:12',(''),(''),
'PTC Creo Elements/Direct Modeling STEP processor for AP214 (Solid Model
)',
'PTC Creo Elements/Direct Modeling 19.0C  15-Aug-2015 (C) Parametric Tec
hnology GmbH','');
FILE_SCHEMA(('AUTOMOTIVE_DESIGN { 1 0 10303 214 1 1 1 1 }'));
ENDSEC;
DATA;
#10=CARTESIAN_POINT('',(0.,0.,0.));
#20=DIRECTION('',(0.,0.,1.));
#30=DIRECTION('',(1.,0.,0.));
#40=AXIS2_PLACEMENT_3D('',#10,#20,#30);
#50=PLANE('',#40);
#60=CARTESIAN_POINT('',(3.,47.,0.));
#70=DIRECTION('',(0.,0.,-1.));
#80=DIRECTION('',(-1.,0.,0.));
#90=AXIS2_PLACEMENT_3D('',#60,#70,#80);
#100=CIRCLE('',#90,3.);
#110=CARTESIAN_POINT('',(0.,47.,0.));
#120=VERTEX_POINT('',#110);
#130=CARTESIAN_POINT('',(3.,50.,0.));
#140=VERTEX_POINT('',#130);
#150=EDGE_CURVE('',#120,#140,#100,.T.);
#160=ORIENTED_EDGE('',*,*,#150,.F.);
#170=CARTESIAN_POINT('',(78.,50.,0.));
#180=DIRECTION('',(-1.,0.,0.));
#190=VECTOR('',#180,1.);
#200=LINE('',#170,#190);
#210=CARTESIAN_POINT('',(75.,50.,0.));
#220=VERTEX_POINT('',#210);
#230=EDGE_CURVE('',#220,#140,#200,.T.);
#240=ORIENTED_EDGE('',*,*,#230,.T.);
#250=CARTESIAN_POINT('',(75.,47.,0.));
#260=DIRECTION('',(0.,0.,1.));
#270=DIRECTION('',(1.,0.,0.));
#280=AXIS2_PLACEMENT_3D('',#250,#260,#270);
#290=CIRCLE('',#280,3.);
#300=CARTESIAN_POINT('',(78.,47.,0.));
#310=VERTEX_POINT('',#300);
#320=EDGE_CURVE('',#310,#220,#290,.T.);
#330=ORIENTED_EDGE('',*,*,#320,.T.);
#340=CARTESIAN_POINT('',(78.,0.,0.));
#350=DIRECTION('',(0.,1.,0.));
#360=VECTOR('',#350,1.);
#370=LINE('',#340,#360);
#380=CARTESIAN_POINT('',(78.,3.,0.));
#390=VERTEX_POINT('',#380);
#400=EDGE_CURVE('',#390,#310,#370,.T.);
#410=ORIENTED_EDGE('',*,*,#400,.T.);
#420=CARTESIAN_POINT('',(75.,3.,0.));
#430=DIRECTION('',(0.,0.,1.));
#440=DIRECTION('',(1.,0.,0.));
#450=AXIS2_PLACEMENT_3D('',#420,#430,#440);
#460=CIRCLE('',#450,3.);
#470=CARTESIAN_POINT('',(75.,0.,0.));
#480=VERTEX_POINT('',#470);
#490=EDGE_CURVE('',#480,#390,#460,.T.);
#500=ORIENTED_EDGE('',*,*,#490,.T.);
#510=CARTESIAN_POINT('',(0.,0.,0.));
#520=DIRECTION('',(1.,0.,0.));
#530=VECTOR('',#520,1.);
#540=LINE('',#510,#530);
#550=CARTESIAN_POINT('',(3.,0.,0.));
#560=VERTEX_POINT('',#550);
#570=EDGE_CURVE('',#560,#480,#540,.T.);
#580=ORIENTED_EDGE('',*,*,#570,.T.);
#590=CARTESIAN_POINT('',(3.,3.,0.));
#600=DIRECTION('',(0.,0.,1.));
#610=DIRECTION('',(1.,0.,0.));
#620=AXIS2_PLACEMENT_3D('',#590,#600,#610);
#630=CIRCLE('',#620,3.);
#640=CARTESIAN_POINT('',(0.,3.,0.));
#650=VERTEX_POINT('',#640);
#660=EDGE_CURVE('',#650,#560,#630,.T.);
#670=ORIENTED_EDGE('',*,*,#660,.T.);
#680=CARTESIAN_POINT('',(0.,50.,0.));
#690=DIRECTION('',(0.,-1.,0.));
#700=VECTOR('',#690,1.);
#710=LINE('',#680,#700);
#720=EDGE_CURVE('',#120,#650,#710,.T.);
#730=ORIENTED_EDGE('',*,*,#720,.T.);
#740=EDGE_LOOP('',(#730,#670,#580,#500,#410,#330,#240,#160));
#750=FACE_OUTER_BOUND('',#740,.T.);
#760=CARTESIAN_POINT('',(59.,12.5,0.));
#770=DIRECTION('',(0.,0.,1.));
#780=DIRECTION('',(1.,0.,0.));
#790=AXIS2_PLACEMENT_3D('',#760,#770,#780);
#800=CIRCLE('',#790,4.5);
#810=CARTESIAN_POINT('',(63.5,12.5,0.));
#820=VERTEX_POINT('',#810);
#830=CARTESIAN_POINT('',(54.5,12.5,0.));
#840=VERTEX_POINT('',#830);
#850=EDGE_CURVE('',#820,#840,#800,.T.);
#860=ORIENTED_EDGE('',*,*,#850,.F.);
#870=EDGE_CURVE('',#840,#820,#800,.T.);
#880=ORIENTED_EDGE('',*,*,#870,.F.);
#890=EDGE_LOOP('',(#880,#860));
#900=FACE_BOUND('',#890,.T.);
#910=CARTESIAN_POINT('',(59.,37.5,0.));
#920=DIRECTION('',(0.,0.,1.));
#930=DIRECTION('',(1.,0.,0.));
#940=AXIS2_PLACEMENT_3D('',#910,#920,#930);
#950=CIRCLE('',#940,4.5);
#960=CARTESIAN_POINT('',(63.5,37.5,0.));
#970=VERTEX_POINT('',#960);
#980=CARTESIAN_POINT('',(54.5,37.5,0.));
#990=VERTEX_POINT('',#980);
#1000=EDGE_CURVE('',#970,#990,#950,.T.);
#1010=ORIENTED_EDGE('',*,*,#1000,.F.);
#1020=EDGE_CURVE('',#990,#970,#950,.T.);
#1030=ORIENTED_EDGE('',*,*,#1020,.F.);
#1040=EDGE_LOOP('',(#1030,#1010));
#1050=FACE_BOUND('',#1040,.T.);
#1060=CARTESIAN_POINT('',(19.,12.5,0.));
#1070=DIRECTION('',(0.,0.,1.));
#1080=DIRECTION('',(1.,0.,0.));
#1090=AXIS2_PLACEMENT_3D('',#1060,#1070,#1080);
#1100=CIRCLE('',#1090,4.5);
#1110=CARTESIAN_POINT('',(23.5,12.5,0.));
#1120=VERTEX_POINT('',#1110);
#1130=CARTESIAN_POINT('',(14.5,12.5,0.));
#1140=VERTEX_POINT('',#1130);
#1150=EDGE_CURVE('',#1120,#1140,#1100,.T.);
#1160=ORIENTED_EDGE('',*,*,#1150,.F.);
#1170=EDGE_CURVE('',#1140,#1120,#1100,.T.);
#1180=ORIENTED_EDGE('',*,*,#1170,.F.);
#1190=EDGE_LOOP('',(#1180,#1160));
#1200=FACE_BOUND('',#1190,.T.);
#1210=CARTESIAN_POINT('',(19.,37.5,0.));
#1220=DIRECTION('',(0.,0.,1.));
#1230=DIRECTION('',(1.,0.,0.));
#1240=AXIS2_PLACEMENT_3D('',#1210,#1220,#1230);
#1250=CIRCLE('',#1240,4.5);
#1260=CARTESIAN_POINT('',(23.5,37.5,0.));
#1270=VERTEX_POINT('',#1260);
#1280=CARTESIAN_POINT('',(14.5,37.5,0.));
#1290=VERTEX_POINT('',#1280);
#1300=EDGE_CURVE('',#1270,#1290,#1250,.T.);
#1310=ORIENTED_EDGE('',*,*,#1300,.F.);
#1320=EDGE_CURVE('',#1290,#1270,#1250,.T.);
#1330=ORIENTED_EDGE('',*,*,#1320,.F.);
#1340=EDGE_LOOP('',(#1330,#1310));
#1350=FACE_BOUND('',#1340,.T.);
#1360=ADVANCED_FACE('',(#750,#900,#1050,#1200,#1350),#50,.T.);
#1370=CARTESIAN_POINT('',(0.,0.,-3.));
#1380=DIRECTION('',(0.,0.,1.));
#1390=DIRECTION('',(1.,0.,0.));
#1400=AXIS2_PLACEMENT_3D('',#1370,#1380,#1390);
#1410=PLANE('',#1400);
#1420=CARTESIAN_POINT('',(3.,47.,-3.));
#1430=DIRECTION('',(0.,0.,-1.));
#1440=DIRECTION('',(-1.,0.,0.));
#1450=AXIS2_PLACEMENT_3D('',#1420,#1430,#1440);
#1460=CIRCLE('',#1450,3.);
#1470=CARTESIAN_POINT('',(0.,47.,-3.));
#1480=VERTEX_POINT('',#1470);
#1490=CARTESIAN_POINT('',(3.,50.,-3.));
#1500=VERTEX_POINT('',#1490);
#1510=EDGE_CURVE('',#1480,#1500,#1460,.T.);
#1520=ORIENTED_EDGE('',*,*,#1510,.T.);
#1530=CARTESIAN_POINT('',(0.,50.,-3.));
#1540=DIRECTION('',(0.,-1.,0.));
#1550=VECTOR('',#1540,1.);
#1560=LINE('',#1530,#1550);
#1570=CARTESIAN_POINT('',(0.,3.,-3.));
#1580=VERTEX_POINT('',#1570);
#1590=EDGE_CURVE('',#1480,#1580,#1560,.T.);
#1600=ORIENTED_EDGE('',*,*,#1590,.F.);
#1610=CARTESIAN_POINT('',(3.,3.,-3.));
#1620=DIRECTION('',(0.,0.,1.));
#1630=DIRECTION('',(1.,0.,0.));
#1640=AXIS2_PLACEMENT_3D('',#1610,#1620,#1630);
#1650=CIRCLE('',#1640,3.);
#1660=CARTESIAN_POINT('',(3.,0.,-3.));
#1670=VERTEX_POINT('',#1660);
#1680=EDGE_CURVE('',#1580,#1670,#1650,.T.);
#1690=ORIENTED_EDGE('',*,*,#1680,.F.);
#1700=CARTESIAN_POINT('',(0.,0.,-3.));
#1710=DIRECTION('',(1.,0.,0.));
#1720=VECTOR('',#1710,1.);
#1730=LINE('',#1700,#1720);
#1740=CARTESIAN_POINT('',(75.,0.,-3.));
#1750=VERTEX_POINT('',#1740);
#1760=EDGE_CURVE('',#1670,#1750,#1730,.T.);
#1770=ORIENTED_EDGE('',*,*,#1760,.F.);
#1780=CARTESIAN_POINT('',(75.,3.,-3.));
#1790=DIRECTION('',(0.,0.,1.));
#1800=DIRECTION('',(1.,0.,0.));
#1810=AXIS2_PLACEMENT_3D('',#1780,#1790,#1800);
#1820=CIRCLE('',#1810,3.);
#1830=CARTESIAN_POINT('',(78.,3.,-3.));
#1840=VERTEX_POINT('',#1830);
#1850=EDGE_CURVE('',#1750,#1840,#1820,.T.);
#1860=ORIENTED_EDGE('',*,*,#1850,.F.);
#1870=CARTESIAN_POINT('',(78.,0.,-3.));
#1880=DIRECTION('',(0.,1.,0.));
#1890=VECTOR('',#1880,1.);
#1900=LINE('',#1870,#1890);
#1910=CARTESIAN_POINT('',(78.,47.,-3.));
#1920=VERTEX_POINT('',#1910);
#1930=EDGE_CURVE('',#1840,#1920,#1900,.T.);
#1940=ORIENTED_EDGE('',*,*,#1930,.F.);
#1950=CARTESIAN_POINT('',(75.,47.,-3.));
#1960=DIRECTION('',(0.,0.,1.));
#1970=DIRECTION('',(1.,0.,0.));
#1980=AXIS2_PLACEMENT_3D('',#1950,#1960,#1970);
#1990=CIRCLE('',#1980,3.);
#2000=CARTESIAN_POINT('',(75.,50.,-3.));
#2010=VERTEX_POINT('',#2000);
#2020=EDGE_CURVE('',#1920,#2010,#1990,.T.);
#2030=ORIENTED_EDGE('',*,*,#2020,.F.);
#2040=CARTESIAN_POINT('',(78.,50.,-3.));
#2050=DIRECTION('',(-1.,0.,0.));
#2060=VECTOR('',#2050,1.);
#2070=LINE('',#2040,#2060);
#2080=EDGE_CURVE('',#2010,#1500,#2070,.T.);
#2090=ORIENTED_EDGE('',*,*,#2080,.F.);
#2100=EDGE_LOOP('',(#2090,#2030,#1940,#1860,#1770,#1690,#1600,#1520));
#2110=FACE_OUTER_BOUND('',#2100,.T.);
#2120=CARTESIAN_POINT('',(59.,12.5,-3.));
#2130=DIRECTION('',(0.,0.,1.));
#2140=DIRECTION('',(1.,0.,0.));
#2150=AXIS2_PLACEMENT_3D('',#2120,#2130,#2140);
#2160=CIRCLE('',#2150,4.5);
#2170=CARTESIAN_POINT('',(63.5,12.5,-3.));
#2180=VERTEX_POINT('',#2170);
#2190=CARTESIAN_POINT('',(54.5,12.5,-3.));
#2200=VERTEX_POINT('',#2190);
#2210=EDGE_CURVE('',#2180,#2200,#2160,.T.);
#2220=ORIENTED_EDGE('',*,*,#2210,.T.);
#2230=EDGE_CURVE('',#2200,#2180,#2160,.T.);
#2240=ORIENTED_EDGE('',*,*,#2230,.T.);
#2250=EDGE_LOOP('',(#2240,#2220));
#2260=FACE_BOUND('',#2250,.T.);
#2270=CARTESIAN_POINT('',(59.,37.5,-3.));
#2280=DIRECTION('',(0.,0.,1.));
#2290=DIRECTION('',(1.,0.,0.));
#2300=AXIS2_PLACEMENT_3D('',#2270,#2280,#2290);
#2310=CIRCLE('',#2300,4.5);
#2320=CARTESIAN_POINT('',(63.5,37.5,-3.));
#2330=VERTEX_POINT('',#2320);
#2340=CARTESIAN_POINT('',(54.5,37.5,-3.));
#2350=VERTEX_POINT('',#2340);
#2360=EDGE_CURVE('',#2330,#2350,#2310,.T.);
#2370=ORIENTED_EDGE('',*,*,#2360,.T.);
#2380=EDGE_CURVE('',#2350,#2330,#2310,.T.);
#2390=ORIENTED_EDGE('',*,*,#2380,.T.);
#2400=EDGE_LOOP('',(#2390,#2370));
#2410=FACE_BOUND('',#2400,.T.);
#2420=CARTESIAN_POINT('',(19.,12.5,-3.));
#2430=DIRECTION('',(0.,0.,1.));
#2440=DIRECTION('',(1.,0.,0.));
#2450=AXIS2_PLACEMENT_3D('',#2420,#2430,#2440);
#2460=CIRCLE('',#2450,4.5);
#2470=CARTESIAN_POINT('',(23.5,12.5,-3.));
#2480=VERTEX_POINT('',#2470);
#2490=CARTESIAN_POINT('',(14.5,12.5,-3.));
#2500=VERTEX_POINT('',#2490);
#2510=EDGE_CURVE('',#2480,#2500,#2460,.T.);
#2520=ORIENTED_EDGE('',*,*,#2510,.T.);
#2530=EDGE_CURVE('',#2500,#2480,#2460,.T.);
#2540=ORIENTED_EDGE('',*,*,#2530,.T.);
#2550=EDGE_LOOP('',(#2540,#2520));
#2560=FACE_BOUND('',#2550,.T.);
#2570=CARTESIAN_POINT('',(19.,37.5,-3.));
#2580=DIRECTION('',(0.,0.,1.));
#2590=DIRECTION('',(1.,0.,0.));
#2600=AXIS2_PLACEMENT_3D('',#2570,#2580,#2590);
#2610=CIRCLE('',#2600,4.5);
#2620=CARTESIAN_POINT('',(23.5,37.5,-3.));
#2630=VERTEX_POINT('',#2620);
#2640=CARTESIAN_POINT('',(14.5,37.5,-3.));
#2650=VERTEX_POINT('',#2640);
#2660=EDGE_CURVE('',#2630,#2650,#2610,.T.);
#2670=ORIENTED_EDGE('',*,*,#2660,.T.);
#2680=EDGE_CURVE('',#2650,#2630,#2610,.T.);
#2690=ORIENTED_EDGE('',*,*,#2680,.T.);
#2700=EDGE_LOOP('',(#2690,#2670));
#2710=FACE_BOUND('',#2700,.T.);
#2720=ADVANCED_FACE('',(#2110,#2260,#2410,#2560,#2710),#1410,.F.);
#2730=CARTESIAN_POINT('',(0.,0.,0.));
#2740=DIRECTION('',(1.,0.,0.));
#2750=DIRECTION('',(0.,-1.,0.));
#2760=AXIS2_PLACEMENT_3D('',#2730,#2740,#2750);
#2770=PLANE('',#2760);
#2780=ORIENTED_EDGE('',*,*,#1590,.T.);
#2790=CARTESIAN_POINT('',(0.,47.,0.));
#2800=DIRECTION('',(0.,0.,-1.));
#2810=VECTOR('',#2800,1.);
#2820=LINE('',#2790,#2810);
#2830=EDGE_CURVE('',#120,#1480,#2820,.T.);
#2840=ORIENTED_EDGE('',*,*,#2830,.T.);
#2850=ORIENTED_EDGE('',*,*,#720,.F.);
#2860=CARTESIAN_POINT('',(0.,3.,0.));
#2870=DIRECTION('',(0.,0.,-1.));
#2880=VECTOR('',#2870,1.);
#2890=LINE('',#2860,#2880);
#2900=EDGE_CURVE('',#650,#1580,#2890,.T.);
#2910=ORIENTED_EDGE('',*,*,#2900,.F.);
#2920=EDGE_LOOP('',(#2910,#2850,#2840,#2780));
#2930=FACE_OUTER_BOUND('',#2920,.T.);
#2940=ADVANCED_FACE('',(#2930),#2770,.F.);
#2950=CARTESIAN_POINT('',(78.,0.,0.));
#2960=DIRECTION('',(-0.,1.,0.));
#2970=DIRECTION('',(1.,0.,0.));
#2980=AXIS2_PLACEMENT_3D('',#2950,#2960,#2970);
#2990=PLANE('',#2980);
#3000=ORIENTED_EDGE('',*,*,#1760,.T.);
#3010=CARTESIAN_POINT('',(3.,0.,0.));
#3020=DIRECTION('',(0.,0.,-1.));
#3030=VECTOR('',#3020,1.);
#3040=LINE('',#3010,#3030);
#3050=EDGE_CURVE('',#560,#1670,#3040,.T.);
#3060=ORIENTED_EDGE('',*,*,#3050,.T.);
#3070=ORIENTED_EDGE('',*,*,#570,.F.);
#3080=CARTESIAN_POINT('',(75.,0.,0.));
#3090=DIRECTION('',(0.,0.,-1.));
#3100=VECTOR('',#3090,1.);
#3110=LINE('',#3080,#3100);
#3120=EDGE_CURVE('',#480,#1750,#3110,.T.);
#3130=ORIENTED_EDGE('',*,*,#3120,.F.);
#3140=EDGE_LOOP('',(#3130,#3070,#3060,#3000));
#3150=FACE_OUTER_BOUND('',#3140,.T.);
#3160=ADVANCED_FACE('',(#3150),#2990,.F.);
#3170=CARTESIAN_POINT('',(78.,50.,0.));
#3180=DIRECTION('',(-1.,0.,0.));
#3190=DIRECTION('',(0.,1.,0.));
#3200=AXIS2_PLACEMENT_3D('',#3170,#3180,#3190);
#3210=PLANE('',#3200);
#3220=ORIENTED_EDGE('',*,*,#1930,.T.);
#3230=CARTESIAN_POINT('',(78.,3.,0.));
#3240=DIRECTION('',(0.,0.,-1.));
#3250=VECTOR('',#3240,1.);
#3260=LINE('',#3230,#3250);
#3270=EDGE_CURVE('',#390,#1840,#3260,.T.);
#3280=ORIENTED_EDGE('',*,*,#3270,.T.);
#3290=ORIENTED_EDGE('',*,*,#400,.F.);
#3300=CARTESIAN_POINT('',(78.,47.,0.));
#3310=DIRECTION('',(0.,0.,-1.));
#3320=VECTOR('',#3310,1.);
#3330=LINE('',#3300,#3320);
#3340=EDGE_CURVE('',#310,#1920,#3330,.T.);
#3350=ORIENTED_EDGE('',*,*,#3340,.F.);
#3360=EDGE_LOOP('',(#3350,#3290,#3280,#3220));
#3370=FACE_OUTER_BOUND('',#3360,.T.);
#3380=ADVANCED_FACE('',(#3370),#3210,.F.);
#3390=CARTESIAN_POINT('',(0.,50.,0.));
#3400=DIRECTION('',(-0.,-1.,-0.));
#3410=DIRECTION('',(-1.,0.,0.));
#3420=AXIS2_PLACEMENT_3D('',#3390,#3400,#3410);
#3430=PLANE('',#3420);
#3440=ORIENTED_EDGE('',*,*,#230,.F.);
#3450=CARTESIAN_POINT('',(3.,50.,0.));
#3460=DIRECTION('',(0.,0.,-1.));
#3470=VECTOR('',#3460,1.);
#3480=LINE('',#3450,#3470);
#3490=EDGE_CURVE('',#140,#1500,#3480,.T.);
#3500=ORIENTED_EDGE('',*,*,#3490,.F.);
#3510=ORIENTED_EDGE('',*,*,#2080,.T.);
#3520=CARTESIAN_POINT('',(75.,50.,0.));
#3530=DIRECTION('',(0.,0.,-1.));
#3540=VECTOR('',#3530,1.);
#3550=LINE('',#3520,#3540);
#3560=EDGE_CURVE('',#220,#2010,#3550,.T.);
#3570=ORIENTED_EDGE('',*,*,#3560,.T.);
#3580=EDGE_LOOP('',(#3570,#3510,#3500,#3440));
#3590=FACE_OUTER_BOUND('',#3580,.T.);
#3600=ADVANCED_FACE('',(#3590),#3430,.F.);
#3610=CARTESIAN_POINT('',(75.,47.,0.));
#3620=DIRECTION('',(0.,0.,1.));
#3630=DIRECTION('',(1.,0.,0.));
#3640=AXIS2_PLACEMENT_3D('',#3610,#3620,#3630);
#3650=CYLINDRICAL_SURFACE('',#3640,3.);
#3660=ORIENTED_EDGE('',*,*,#320,.F.);
#3670=ORIENTED_EDGE('',*,*,#3560,.F.);
#3680=ORIENTED_EDGE('',*,*,#2020,.T.);
#3690=ORIENTED_EDGE('',*,*,#3340,.T.);
#3700=EDGE_LOOP('',(#3690,#3680,#3670,#3660));
#3710=FACE_OUTER_BOUND('',#3700,.T.);
#3720=ADVANCED_FACE('',(#3710),#3650,.T.);
#3730=CARTESIAN_POINT('',(75.,3.,0.));
#3740=DIRECTION('',(0.,0.,1.));
#3750=DIRECTION('',(1.,0.,0.));
#3760=AXIS2_PLACEMENT_3D('',#3730,#3740,#3750);
#3770=CYLINDRICAL_SURFACE('',#3760,3.);
#3780=ORIENTED_EDGE('',*,*,#490,.F.);
#3790=ORIENTED_EDGE('',*,*,#3270,.F.);
#3800=ORIENTED_EDGE('',*,*,#1850,.T.);
#3810=ORIENTED_EDGE('',*,*,#3120,.T.);
#3820=EDGE_LOOP('',(#3810,#3800,#3790,#3780));
#3830=FACE_OUTER_BOUND('',#3820,.T.);
#3840=ADVANCED_FACE('',(#3830),#3770,.T.);
#3850=CARTESIAN_POINT('',(3.,47.,0.));
#3860=DIRECTION('',(0.,0.,-1.));
#3870=DIRECTION('',(-1.,0.,0.));
#3880=AXIS2_PLACEMENT_3D('',#3850,#3860,#3870);
#3890=CYLINDRICAL_SURFACE('',#3880,3.);
#3900=ORIENTED_EDGE('',*,*,#1510,.F.);
#3910=ORIENTED_EDGE('',*,*,#3490,.T.);
#3920=ORIENTED_EDGE('',*,*,#150,.T.);
#3930=ORIENTED_EDGE('',*,*,#2830,.F.);
#3940=EDGE_LOOP('',(#3930,#3920,#3910,#3900));
#3950=FACE_OUTER_BOUND('',#3940,.T.);
#3960=ADVANCED_FACE('',(#3950),#3890,.T.);
#3970=CARTESIAN_POINT('',(3.,3.,0.));
#3980=DIRECTION('',(0.,0.,1.));
#3990=DIRECTION('',(1.,0.,0.));
#4000=AXIS2_PLACEMENT_3D('',#3970,#3980,#3990);
#4010=CYLINDRICAL_SURFACE('',#4000,3.);
#4020=ORIENTED_EDGE('',*,*,#660,.F.);
#4030=ORIENTED_EDGE('',*,*,#3050,.F.);
#4040=ORIENTED_EDGE('',*,*,#1680,.T.);
#4050=ORIENTED_EDGE('',*,*,#2900,.T.);
#4060=EDGE_LOOP('',(#4050,#4040,#4030,#4020));
#4070=FACE_OUTER_BOUND('',#4060,.T.);
#4080=ADVANCED_FACE('',(#4070),#4010,.T.);
#4090=CARTESIAN_POINT('',(59.,12.5,0.));
#4100=DIRECTION('',(0.,0.,1.));
#4110=DIRECTION('',(1.,0.,0.));
#4120=AXIS2_PLACEMENT_3D('',#4090,#4100,#4110);
#4130=CYLINDRICAL_SURFACE('',#4120,4.5);
#4140=CARTESIAN_POINT('',(63.5,12.5,0.));
#4150=DIRECTION('',(0.,0.,1.));
#4160=VECTOR('',#4150,1.);
#4170=LINE('',#4140,#4160);
#4180=EDGE_CURVE('',#2180,#820,#4170,.T.);
#4190=ORIENTED_EDGE('',*,*,#4180,.F.);
#4200=ORIENTED_EDGE('',*,*,#870,.T.);
#4210=CARTESIAN_POINT('',(54.5,12.5,0.));
#4220=DIRECTION('',(0.,0.,1.));
#4230=VECTOR('',#4220,1.);
#4240=LINE('',#4210,#4230);
#4250=EDGE_CURVE('',#2200,#840,#4240,.T.);
#4260=ORIENTED_EDGE('',*,*,#4250,.T.);
#4270=ORIENTED_EDGE('',*,*,#2230,.F.);
#4280=EDGE_LOOP('',(#4270,#4260,#4200,#4190));
#4290=FACE_OUTER_BOUND('',#4280,.T.);
#4300=ADVANCED_FACE('',(#4290),#4130,.F.);
#4310=CARTESIAN_POINT('',(59.,37.5,0.));
#4320=DIRECTION('',(0.,0.,1.));
#4330=DIRECTION('',(1.,0.,0.));
#4340=AXIS2_PLACEMENT_3D('',#4310,#4320,#4330);
#4350=CYLINDRICAL_SURFACE('',#4340,4.5);
#4360=CARTESIAN_POINT('',(63.5,37.5,0.));
#4370=DIRECTION('',(0.,0.,1.));
#4380=VECTOR('',#4370,1.);
#4390=LINE('',#4360,#4380);
#4400=EDGE_CURVE('',#2330,#970,#4390,.T.);
#4410=ORIENTED_EDGE('',*,*,#4400,.F.);
#4420=ORIENTED_EDGE('',*,*,#1020,.T.);
#4430=CARTESIAN_POINT('',(54.5,37.5,0.));
#4440=DIRECTION('',(0.,0.,1.));
#4450=VECTOR('',#4440,1.);
#4460=LINE('',#4430,#4450);
#4470=EDGE_CURVE('',#2350,#990,#4460,.T.);
#4480=ORIENTED_EDGE('',*,*,#4470,.T.);
#4490=ORIENTED_EDGE('',*,*,#2380,.F.);
#4500=EDGE_LOOP('',(#4490,#4480,#4420,#4410));
#4510=FACE_OUTER_BOUND('',#4500,.T.);
#4520=ADVANCED_FACE('',(#4510),#4350,.F.);
#4530=CARTESIAN_POINT('',(19.,12.5,0.));
#4540=DIRECTION('',(0.,0.,1.));
#4550=DIRECTION('',(1.,0.,0.));
#4560=AXIS2_PLACEMENT_3D('',#4530,#4540,#4550);
#4570=CYLINDRICAL_SURFACE('',#4560,4.5);
#4580=CARTESIAN_POINT('',(23.5,12.5,0.));
#4590=DIRECTION('',(0.,0.,1.));
#4600=VECTOR('',#4590,1.);
#4610=LINE('',#4580,#4600);
#4620=EDGE_CURVE('',#2480,#1120,#4610,.T.);
#4630=ORIENTED_EDGE('',*,*,#4620,.F.);
#4640=ORIENTED_EDGE('',*,*,#1170,.T.);
#4650=CARTESIAN_POINT('',(14.5,12.5,0.));
#4660=DIRECTION('',(0.,0.,1.));
#4670=VECTOR('',#4660,1.);
#4680=LINE('',#4650,#4670);
#4690=EDGE_CURVE('',#2500,#1140,#4680,.T.);
#4700=ORIENTED_EDGE('',*,*,#4690,.T.);
#4710=ORIENTED_EDGE('',*,*,#2530,.F.);
#4720=EDGE_LOOP('',(#4710,#4700,#4640,#4630));
#4730=FACE_OUTER_BOUND('',#4720,.T.);
#4740=ADVANCED_FACE('',(#4730),#4570,.F.);
#4750=CARTESIAN_POINT('',(19.,37.5,0.));
#4760=DIRECTION('',(0.,0.,1.));
#4770=DIRECTION('',(1.,0.,0.));
#4780=AXIS2_PLACEMENT_3D('',#4750,#4760,#4770);
#4790=CYLINDRICAL_SURFACE('',#4780,4.5);
#4800=CARTESIAN_POINT('',(23.5,37.5,0.));
#4810=DIRECTION('',(0.,0.,1.));
#4820=VECTOR('',#4810,1.);
#4830=LINE('',#4800,#4820);
#4840=EDGE_CURVE('',#2630,#1270,#4830,.T.);
#4850=ORIENTED_EDGE('',*,*,#4840,.F.);
#4860=ORIENTED_EDGE('',*,*,#1320,.T.);
#4870=CARTESIAN_POINT('',(14.5,37.5,0.));
#4880=DIRECTION('',(0.,0.,1.));
#4890=VECTOR('',#4880,1.);
#4900=LINE('',#4870,#4890);
#4910=EDGE_CURVE('',#2650,#1290,#4900,.T.);
#4920=ORIENTED_EDGE('',*,*,#4910,.T.);
#4930=ORIENTED_EDGE('',*,*,#2680,.F.);
#4940=EDGE_LOOP('',(#4930,#4920,#4860,#4850));
#4950=FACE_OUTER_BOUND('',#4940,.T.);
#4960=ADVANCED_FACE('',(#4950),#4790,.F.);
#4970=CARTESIAN_POINT('',(59.,12.5,0.));
#4980=DIRECTION('',(0.,0.,1.));
#4990=DIRECTION('',(1.,0.,0.));
#5000=AXIS2_PLACEMENT_3D('',#4970,#4980,#4990);
#5010=CYLINDRICAL_SURFACE('',#5000,4.5);
#5020=ORIENTED_EDGE('',*,*,#2210,.F.);
#5030=ORIENTED_EDGE('',*,*,#4250,.F.);
#5040=ORIENTED_EDGE('',*,*,#850,.T.);
#5050=ORIENTED_EDGE('',*,*,#4180,.T.);
#5060=EDGE_LOOP('',(#5050,#5040,#5030,#5020));
#5070=FACE_OUTER_BOUND('',#5060,.T.);
#5080=ADVANCED_FACE('',(#5070),#5010,.F.);
#5090=CARTESIAN_POINT('',(19.,37.5,0.));
#5100=DIRECTION('',(0.,0.,1.));
#5110=DIRECTION('',(1.,0.,0.));
#5120=AXIS2_PLACEMENT_3D('',#5090,#5100,#5110);
#5130=CYLINDRICAL_SURFACE('',#5120,4.5);
#5140=ORIENTED_EDGE('',*,*,#2660,.F.);
#5150=ORIENTED_EDGE('',*,*,#4910,.F.);
#5160=ORIENTED_EDGE('',*,*,#1300,.T.);
#5170=ORIENTED_EDGE('',*,*,#4840,.T.);
#5180=EDGE_LOOP('',(#5170,#5160,#5150,#5140));
#5190=FACE_OUTER_BOUND('',#5180,.T.);
#5200=ADVANCED_FACE('',(#5190),#5130,.F.);
#5210=CARTESIAN_POINT('',(59.,37.5,0.));
#5220=DIRECTION('',(0.,0.,1.));
#5230=DIRECTION('',(1.,0.,0.));
#5240=AXIS2_PLACEMENT_3D('',#5210,#5220,#5230);
#5250=CYLINDRICAL_SURFACE('',#5240,4.5);
#5260=ORIENTED_EDGE('',*,*,#2360,.F.);
#5270=ORIENTED_EDGE('',*,*,#4470,.F.);
#5280=ORIENTED_EDGE('',*,*,#1000,.T.);
#5290=ORIENTED_EDGE('',*,*,#4400,.T.);
#5300=EDGE_LOOP('',(#5290,#5280,#5270,#5260));
#5310=FACE_OUTER_BOUND('',#5300,.T.);
#5320=ADVANCED_FACE('',(#5310),#5250,.F.);
#5330=CARTESIAN_POINT('',(19.,12.5,0.));
#5340=DIRECTION('',(0.,0.,1.));
#5350=DIRECTION('',(1.,0.,0.));
#5360=AXIS2_PLACEMENT_3D('',#5330,#5340,#5350);
#5370=CYLINDRICAL_SURFACE('',#5360,4.5);
#5380=ORIENTED_EDGE('',*,*,#2510,.F.);
#5390=ORIENTED_EDGE('',*,*,#4690,.F.);
#5400=ORIENTED_EDGE('',*,*,#1150,.T.);
#5410=ORIENTED_EDGE('',*,*,#4620,.T.);
#5420=EDGE_LOOP('',(#5410,#5400,#5390,#5380));
#5430=FACE_OUTER_BOUND('',#5420,.T.);
#5440=ADVANCED_FACE('',(#5430),#5370,.F.);
#5450=CLOSED_SHELL('',(#2940,#3160,#3380,#3600,#3720,#3840,#3960,#4080,
#4300,#4520,#4740,#4960,#5080,#5200,#5320,#5440,#2720,#1360));
#5460=MANIFOLD_SOLID_BREP('',#5450);
#5470=CARTESIAN_POINT('',(0.,0.,0.));
#5480=DIRECTION('',(0.,0.,1.));
#5490=DIRECTION('',(1.,0.,0.));
#5500=AXIS2_PLACEMENT_3D('',#5470,#5480,#5490);
#5510=APPLICATION_CONTEXT(' ');
#5520=APPLICATION_PROTOCOL_DEFINITION(' ','automotive_design',1998,#5510
);
#5530=PRODUCT_CONTEXT('',#5510,'mechanical');
#5540=PRODUCT_DEFINITION_CONTEXT('part definition',#5510,'design');
#5550=PRODUCT('Verbindungslasche-MMS-44_3mm-schwarz_44.0185.2_PX173313',
'Verbindungslasche-MMS-44_3mm-schwarz_44.0185.2_PX173313','',(#5530));
#5560=PRODUCT_RELATED_PRODUCT_CATEGORY('part',' ',(#5550));
#5570=PRODUCT_DEFINITION_FORMATION_WITH_SPECIFIED_SOURCE('','',#5550,
.BOUGHT.);
#5580=PRODUCT_DEFINITION('',' ',#5570,#5540);
#5590=PRODUCT_DEFINITION_SHAPE('','',#5580);
#5600=DIMENSIONAL_EXPONENTS(1.,0.,0.,0.,0.,0.,0.);
#5610=DIMENSIONAL_EXPONENTS(0.,0.,0.,0.,0.,0.,0.);
#5620=DIMENSIONAL_EXPONENTS(0.,0.,0.,0.,0.,0.,0.);
#5630=(LENGTH_UNIT() NAMED_UNIT(*) SI_UNIT(.MILLI.,.METRE.));
#5640=(NAMED_UNIT(*) PLANE_ANGLE_UNIT() SI_UNIT($,.RADIAN.));
#5650=(NAMED_UNIT(*) SI_UNIT($,.STERADIAN.) SOLID_ANGLE_UNIT());
#5660=(GEOMETRIC_REPRESENTATION_CONTEXT(3) 
GLOBAL_UNCERTAINTY_ASSIGNED_CONTEXT((#5670)) 
GLOBAL_UNIT_ASSIGNED_CONTEXT((#5630,#5640,#5650)) REPRESENTATION_CONTEXT
('',''));
#5670=UNCERTAINTY_MEASURE_WITH_UNIT(LENGTH_MEASURE(1.E-6),#5630,
'distance_accuracy_value','maximum gap value');
#5680=ADVANCED_BREP_SHAPE_REPRESENTATION('',(#5500,#5460),#5660);
#5690=SHAPE_DEFINITION_REPRESENTATION(#5590,#5680);
#5700=COLOUR_RGB('',0.0823529437184334,0.0862745121121407,
0.0980392247438431);
#5710=FILL_AREA_STYLE_COLOUR('',#5700);
#5720=FILL_AREA_STYLE('',(#5710));
#5730=SURFACE_STYLE_FILL_AREA(#5720);
#5740=SURFACE_SIDE_STYLE('',(#5730));
#5750=SURFACE_STYLE_USAGE(.BOTH.,#5740);
#5760=PRESENTATION_STYLE_ASSIGNMENT((#5750));
#5770=STYLED_ITEM('',(#5760),#5460);
#5780=DRAUGHTING_MODEL('',(#5770),#5660);
ENDSEC;
END-ISO-10303-21;
