ISO-10303-21;
HEADER;
FILE_DESCRIPTION(('Creo Elements/Direct Modeling STEP Export'),'2;1');
FILE_NAME(
'//KR-CAD2/PhoenixTemp/karl.letzgus/Konvertierung/44.0205.1_Haltewinkel-
MMS-44_40x40x30x5.stp','2022-03-21T 8:57:50',(''),(''),
'PTC Creo Elements/Direct Modeling STEP processor for AP214 (Solid Model
)',
'PTC Creo Elements/Direct Modeling 19.0C  15-Aug-2015 (C) Parametric Tec
hnology GmbH','');
FILE_SCHEMA(('AUTOMOTIVE_DESIGN { 1 0 10303 214 1 1 1 1 }'));
ENDSEC;
DATA;
#10=CARTESIAN_POINT('',(0.,0.,0.));
#20=DIRECTION('',(0.,0.,1.));
#30=DIRECTION('',(1.,0.,0.));
#40=AXIS2_PLACEMENT_3D('',#10,#20,#30);
#50=PLANE('',#40);
#60=CARTESIAN_POINT('',(20.,20.,0.));
#70=DIRECTION('',(0.,0.,-1.));
#80=DIRECTION('',(1.,0.,0.));
#90=AXIS2_PLACEMENT_3D('',#60,#70,#80);
#100=CIRCLE('',#90,4.5);
#110=CARTESIAN_POINT('',(24.5,20.,0.));
#120=VERTEX_POINT('',#110);
#130=CARTESIAN_POINT('',(15.5,20.,0.));
#140=VERTEX_POINT('',#130);
#150=EDGE_CURVE('',#120,#140,#100,.T.);
#160=ORIENTED_EDGE('',*,*,#150,.F.);
#170=EDGE_CURVE('',#140,#120,#100,.T.);
#180=ORIENTED_EDGE('',*,*,#170,.F.);
#190=EDGE_LOOP('',(#180,#160));
#200=FACE_BOUND('',#190,.T.);
#210=CARTESIAN_POINT('',(0.,40.,0.));
#220=DIRECTION('',(0.,-1.,0.));
#230=VECTOR('',#220,1.);
#240=LINE('',#210,#230);
#250=CARTESIAN_POINT('',(0.,40.,0.));
#260=VERTEX_POINT('',#250);
#270=CARTESIAN_POINT('',(0.,0.,0.));
#280=VERTEX_POINT('',#270);
#290=EDGE_CURVE('',#260,#280,#240,.T.);
#300=ORIENTED_EDGE('',*,*,#290,.F.);
#310=CARTESIAN_POINT('',(0.,0.,0.));
#320=DIRECTION('',(1.,0.,0.));
#330=VECTOR('',#320,1.);
#340=LINE('',#310,#330);
#350=CARTESIAN_POINT('',(40.,0.,0.));
#360=VERTEX_POINT('',#350);
#370=EDGE_CURVE('',#280,#360,#340,.T.);
#380=ORIENTED_EDGE('',*,*,#370,.F.);
#390=CARTESIAN_POINT('',(40.,0.,0.));
#400=DIRECTION('',(0.,1.,0.));
#410=VECTOR('',#400,1.);
#420=LINE('',#390,#410);
#430=CARTESIAN_POINT('',(40.,40.,0.));
#440=VERTEX_POINT('',#430);
#450=EDGE_CURVE('',#360,#440,#420,.T.);
#460=ORIENTED_EDGE('',*,*,#450,.F.);
#470=CARTESIAN_POINT('',(40.,40.,0.));
#480=DIRECTION('',(-1.,0.,0.));
#490=VECTOR('',#480,1.);
#500=LINE('',#470,#490);
#510=EDGE_CURVE('',#440,#260,#500,.T.);
#520=ORIENTED_EDGE('',*,*,#510,.F.);
#530=EDGE_LOOP('',(#520,#460,#380,#300));
#540=FACE_OUTER_BOUND('',#530,.T.);
#550=ADVANCED_FACE('',(#200,#540),#50,.F.);
#560=CARTESIAN_POINT('',(0.,0.,5.));
#570=DIRECTION('',(0.,0.,1.));
#580=DIRECTION('',(1.,0.,0.));
#590=AXIS2_PLACEMENT_3D('',#560,#570,#580);
#600=PLANE('',#590);
#610=CARTESIAN_POINT('',(20.,20.,5.));
#620=DIRECTION('',(0.,0.,-1.));
#630=DIRECTION('',(1.,0.,0.));
#640=AXIS2_PLACEMENT_3D('',#610,#620,#630);
#650=CIRCLE('',#640,4.5);
#660=CARTESIAN_POINT('',(24.5,20.,5.));
#670=VERTEX_POINT('',#660);
#680=CARTESIAN_POINT('',(15.5,20.,5.));
#690=VERTEX_POINT('',#680);
#700=EDGE_CURVE('',#670,#690,#650,.T.);
#710=ORIENTED_EDGE('',*,*,#700,.T.);
#720=EDGE_CURVE('',#690,#670,#650,.T.);
#730=ORIENTED_EDGE('',*,*,#720,.T.);
#740=EDGE_LOOP('',(#730,#710));
#750=FACE_BOUND('',#740,.T.);
#760=CARTESIAN_POINT('',(0.,40.,5.));
#770=DIRECTION('',(0.,-1.,0.));
#780=VECTOR('',#770,1.);
#790=LINE('',#760,#780);
#800=CARTESIAN_POINT('',(0.,40.,5.));
#810=VERTEX_POINT('',#800);
#820=CARTESIAN_POINT('',(0.,5.,5.));
#830=VERTEX_POINT('',#820);
#840=EDGE_CURVE('',#810,#830,#790,.T.);
#850=ORIENTED_EDGE('',*,*,#840,.T.);
#860=CARTESIAN_POINT('',(40.,40.,5.));
#870=DIRECTION('',(-1.,0.,0.));
#880=VECTOR('',#870,1.);
#890=LINE('',#860,#880);
#900=CARTESIAN_POINT('',(40.,40.,5.));
#910=VERTEX_POINT('',#900);
#920=EDGE_CURVE('',#910,#810,#890,.T.);
#930=ORIENTED_EDGE('',*,*,#920,.T.);
#940=CARTESIAN_POINT('',(40.,0.,5.));
#950=DIRECTION('',(0.,1.,0.));
#960=VECTOR('',#950,1.);
#970=LINE('',#940,#960);
#980=CARTESIAN_POINT('',(40.,5.,5.));
#990=VERTEX_POINT('',#980);
#1000=EDGE_CURVE('',#990,#910,#970,.T.);
#1010=ORIENTED_EDGE('',*,*,#1000,.T.);
#1020=CARTESIAN_POINT('',(0.,5.,5.));
#1030=DIRECTION('',(-1.,0.,0.));
#1040=VECTOR('',#1030,1.);
#1050=LINE('',#1020,#1040);
#1060=EDGE_CURVE('',#990,#830,#1050,.T.);
#1070=ORIENTED_EDGE('',*,*,#1060,.F.);
#1080=EDGE_LOOP('',(#1070,#1010,#930,#850));
#1090=FACE_OUTER_BOUND('',#1080,.T.);
#1100=ADVANCED_FACE('',(#750,#1090),#600,.T.);
#1110=CARTESIAN_POINT('',(20.,20.,450.));
#1120=DIRECTION('',(0.,0.,-1.));
#1130=DIRECTION('',(1.,0.,0.));
#1140=AXIS2_PLACEMENT_3D('',#1110,#1120,#1130);
#1150=CYLINDRICAL_SURFACE('',#1140,4.5);
#1160=CARTESIAN_POINT('',(24.5,20.,450.));
#1170=DIRECTION('',(0.,0.,-1.));
#1180=VECTOR('',#1170,1.);
#1190=LINE('',#1160,#1180);
#1200=EDGE_CURVE('',#670,#120,#1190,.T.);
#1210=ORIENTED_EDGE('',*,*,#1200,.F.);
#1220=ORIENTED_EDGE('',*,*,#170,.T.);
#1230=CARTESIAN_POINT('',(15.5,20.,450.));
#1240=DIRECTION('',(0.,0.,-1.));
#1250=VECTOR('',#1240,1.);
#1260=LINE('',#1230,#1250);
#1270=EDGE_CURVE('',#690,#140,#1260,.T.);
#1280=ORIENTED_EDGE('',*,*,#1270,.T.);
#1290=ORIENTED_EDGE('',*,*,#720,.F.);
#1300=EDGE_LOOP('',(#1290,#1280,#1220,#1210));
#1310=FACE_OUTER_BOUND('',#1300,.T.);
#1320=ADVANCED_FACE('',(#1310),#1150,.F.);
#1330=CARTESIAN_POINT('',(20.,20.,450.));
#1340=DIRECTION('',(0.,0.,-1.));
#1350=DIRECTION('',(1.,0.,0.));
#1360=AXIS2_PLACEMENT_3D('',#1330,#1340,#1350);
#1370=CYLINDRICAL_SURFACE('',#1360,4.5);
#1380=ORIENTED_EDGE('',*,*,#700,.F.);
#1390=ORIENTED_EDGE('',*,*,#1270,.F.);
#1400=ORIENTED_EDGE('',*,*,#150,.T.);
#1410=ORIENTED_EDGE('',*,*,#1200,.T.);
#1420=EDGE_LOOP('',(#1410,#1400,#1390,#1380));
#1430=FACE_OUTER_BOUND('',#1420,.T.);
#1440=ADVANCED_FACE('',(#1430),#1370,.F.);
#1450=CARTESIAN_POINT('',(40.,5.,5.));
#1460=DIRECTION('',(1.,0.,0.));
#1470=DIRECTION('',(0.,-1.,0.));
#1480=AXIS2_PLACEMENT_3D('',#1450,#1460,#1470);
#1490=PLANE('',#1480);
#1500=ORIENTED_EDGE('',*,*,#450,.T.);
#1510=CARTESIAN_POINT('',(40.,0.,0.));
#1520=DIRECTION('',(0.,0.,1.));
#1530=VECTOR('',#1520,1.);
#1540=LINE('',#1510,#1530);
#1550=CARTESIAN_POINT('',(40.,0.,30.));
#1560=VERTEX_POINT('',#1550);
#1570=EDGE_CURVE('',#360,#1560,#1540,.T.);
#1580=ORIENTED_EDGE('',*,*,#1570,.F.);
#1590=CARTESIAN_POINT('',(40.,0.,30.));
#1600=DIRECTION('',(0.,1.,0.));
#1610=VECTOR('',#1600,1.);
#1620=LINE('',#1590,#1610);
#1630=CARTESIAN_POINT('',(40.,5.,30.));
#1640=VERTEX_POINT('',#1630);
#1650=EDGE_CURVE('',#1560,#1640,#1620,.T.);
#1660=ORIENTED_EDGE('',*,*,#1650,.F.);
#1670=CARTESIAN_POINT('',(40.,5.,5.));
#1680=DIRECTION('',(0.,0.,1.));
#1690=VECTOR('',#1680,1.);
#1700=LINE('',#1670,#1690);
#1710=EDGE_CURVE('',#990,#1640,#1700,.T.);
#1720=ORIENTED_EDGE('',*,*,#1710,.T.);
#1730=ORIENTED_EDGE('',*,*,#1000,.F.);
#1740=CARTESIAN_POINT('',(40.,40.,0.));
#1750=DIRECTION('',(0.,0.,1.));
#1760=VECTOR('',#1750,1.);
#1770=LINE('',#1740,#1760);
#1780=EDGE_CURVE('',#440,#910,#1770,.T.);
#1790=ORIENTED_EDGE('',*,*,#1780,.T.);
#1800=EDGE_LOOP('',(#1790,#1730,#1720,#1660,#1580,#1500));
#1810=FACE_OUTER_BOUND('',#1800,.T.);
#1820=ADVANCED_FACE('',(#1810),#1490,.T.);
#1830=CARTESIAN_POINT('',(40.,0.,0.));
#1840=DIRECTION('',(-0.,-1.,-0.));
#1850=DIRECTION('',(-1.,0.,0.));
#1860=AXIS2_PLACEMENT_3D('',#1830,#1840,#1850);
#1870=PLANE('',#1860);
#1880=CARTESIAN_POINT('',(20.,0.,15.));
#1890=DIRECTION('',(0.,-1.,0.));
#1900=DIRECTION('',(1.,0.,0.));
#1910=AXIS2_PLACEMENT_3D('',#1880,#1890,#1900);
#1920=CIRCLE('',#1910,4.5);
#1930=CARTESIAN_POINT('',(24.5,0.,15.));
#1940=VERTEX_POINT('',#1930);
#1950=CARTESIAN_POINT('',(15.5,0.,15.));
#1960=VERTEX_POINT('',#1950);
#1970=EDGE_CURVE('',#1940,#1960,#1920,.T.);
#1980=ORIENTED_EDGE('',*,*,#1970,.F.);
#1990=EDGE_CURVE('',#1960,#1940,#1920,.T.);
#2000=ORIENTED_EDGE('',*,*,#1990,.F.);
#2010=EDGE_LOOP('',(#2000,#1980));
#2020=FACE_BOUND('',#2010,.T.);
#2030=CARTESIAN_POINT('',(0.,0.,0.));
#2040=DIRECTION('',(0.,0.,1.));
#2050=VECTOR('',#2040,1.);
#2060=LINE('',#2030,#2050);
#2070=CARTESIAN_POINT('',(0.,0.,30.));
#2080=VERTEX_POINT('',#2070);
#2090=EDGE_CURVE('',#280,#2080,#2060,.T.);
#2100=ORIENTED_EDGE('',*,*,#2090,.F.);
#2110=CARTESIAN_POINT('',(0.,0.,30.));
#2120=DIRECTION('',(1.,0.,0.));
#2130=VECTOR('',#2120,1.);
#2140=LINE('',#2110,#2130);
#2150=EDGE_CURVE('',#2080,#1560,#2140,.T.);
#2160=ORIENTED_EDGE('',*,*,#2150,.F.);
#2170=ORIENTED_EDGE('',*,*,#1570,.T.);
#2180=ORIENTED_EDGE('',*,*,#370,.T.);
#2190=EDGE_LOOP('',(#2180,#2170,#2160,#2100));
#2200=FACE_OUTER_BOUND('',#2190,.T.);
#2210=ADVANCED_FACE('',(#2020,#2200),#1870,.T.);
#2220=CARTESIAN_POINT('',(0.,0.,5.));
#2230=DIRECTION('',(-1.,0.,0.));
#2240=DIRECTION('',(0.,1.,0.));
#2250=AXIS2_PLACEMENT_3D('',#2220,#2230,#2240);
#2260=PLANE('',#2250);
#2270=ORIENTED_EDGE('',*,*,#840,.F.);
#2280=CARTESIAN_POINT('',(0.,5.,5.));
#2290=DIRECTION('',(0.,0.,1.));
#2300=VECTOR('',#2290,1.);
#2310=LINE('',#2280,#2300);
#2320=CARTESIAN_POINT('',(0.,5.,30.));
#2330=VERTEX_POINT('',#2320);
#2340=EDGE_CURVE('',#830,#2330,#2310,.T.);
#2350=ORIENTED_EDGE('',*,*,#2340,.F.);
#2360=CARTESIAN_POINT('',(0.,0.,30.));
#2370=DIRECTION('',(0.,-1.,0.));
#2380=VECTOR('',#2370,1.);
#2390=LINE('',#2360,#2380);
#2400=EDGE_CURVE('',#2330,#2080,#2390,.T.);
#2410=ORIENTED_EDGE('',*,*,#2400,.F.);
#2420=ORIENTED_EDGE('',*,*,#2090,.T.);
#2430=ORIENTED_EDGE('',*,*,#290,.T.);
#2440=CARTESIAN_POINT('',(0.,40.,0.));
#2450=DIRECTION('',(0.,0.,-1.));
#2460=VECTOR('',#2450,1.);
#2470=LINE('',#2440,#2460);
#2480=EDGE_CURVE('',#810,#260,#2470,.T.);
#2490=ORIENTED_EDGE('',*,*,#2480,.T.);
#2500=EDGE_LOOP('',(#2490,#2430,#2420,#2410,#2350,#2270));
#2510=FACE_OUTER_BOUND('',#2500,.T.);
#2520=ADVANCED_FACE('',(#2510),#2260,.T.);
#2530=CARTESIAN_POINT('',(0.,40.,0.));
#2540=DIRECTION('',(-0.,1.,0.));
#2550=DIRECTION('',(1.,0.,0.));
#2560=AXIS2_PLACEMENT_3D('',#2530,#2540,#2550);
#2570=PLANE('',#2560);
#2580=ORIENTED_EDGE('',*,*,#1780,.F.);
#2590=ORIENTED_EDGE('',*,*,#920,.F.);
#2600=ORIENTED_EDGE('',*,*,#2480,.F.);
#2610=ORIENTED_EDGE('',*,*,#510,.T.);
#2620=EDGE_LOOP('',(#2610,#2600,#2590,#2580));
#2630=FACE_OUTER_BOUND('',#2620,.T.);
#2640=ADVANCED_FACE('',(#2630),#2570,.T.);
#2650=CARTESIAN_POINT('',(0.,5.,5.));
#2660=DIRECTION('',(-0.,1.,0.));
#2670=DIRECTION('',(1.,0.,0.));
#2680=AXIS2_PLACEMENT_3D('',#2650,#2660,#2670);
#2690=PLANE('',#2680);
#2700=CARTESIAN_POINT('',(20.,5.,15.));
#2710=DIRECTION('',(0.,-1.,0.));
#2720=DIRECTION('',(1.,0.,0.));
#2730=AXIS2_PLACEMENT_3D('',#2700,#2710,#2720);
#2740=CIRCLE('',#2730,4.5);
#2750=CARTESIAN_POINT('',(24.5,5.,15.));
#2760=VERTEX_POINT('',#2750);
#2770=CARTESIAN_POINT('',(15.5,5.,15.));
#2780=VERTEX_POINT('',#2770);
#2790=EDGE_CURVE('',#2760,#2780,#2740,.T.);
#2800=ORIENTED_EDGE('',*,*,#2790,.T.);
#2810=EDGE_CURVE('',#2780,#2760,#2740,.T.);
#2820=ORIENTED_EDGE('',*,*,#2810,.T.);
#2830=EDGE_LOOP('',(#2820,#2800));
#2840=FACE_BOUND('',#2830,.T.);
#2850=ORIENTED_EDGE('',*,*,#1710,.F.);
#2860=CARTESIAN_POINT('',(40.,5.,30.));
#2870=DIRECTION('',(-1.,0.,0.));
#2880=VECTOR('',#2870,1.);
#2890=LINE('',#2860,#2880);
#2900=EDGE_CURVE('',#1640,#2330,#2890,.T.);
#2910=ORIENTED_EDGE('',*,*,#2900,.F.);
#2920=ORIENTED_EDGE('',*,*,#2340,.T.);
#2930=ORIENTED_EDGE('',*,*,#1060,.T.);
#2940=EDGE_LOOP('',(#2930,#2920,#2910,#2850));
#2950=FACE_OUTER_BOUND('',#2940,.T.);
#2960=ADVANCED_FACE('',(#2840,#2950),#2690,.T.);
#2970=CARTESIAN_POINT('',(20.,20.,30.));
#2980=DIRECTION('',(0.,0.,1.));
#2990=DIRECTION('',(1.,0.,0.));
#3000=AXIS2_PLACEMENT_3D('',#2970,#2980,#2990);
#3010=PLANE('',#3000);
#3020=ORIENTED_EDGE('',*,*,#2150,.T.);
#3030=ORIENTED_EDGE('',*,*,#2400,.T.);
#3040=ORIENTED_EDGE('',*,*,#2900,.T.);
#3050=ORIENTED_EDGE('',*,*,#1650,.T.);
#3060=EDGE_LOOP('',(#3050,#3040,#3030,#3020));
#3070=FACE_OUTER_BOUND('',#3060,.T.);
#3080=ADVANCED_FACE('',(#3070),#3010,.T.);
#3090=CARTESIAN_POINT('',(20.,450.,15.));
#3100=DIRECTION('',(0.,-1.,0.));
#3110=DIRECTION('',(1.,0.,0.));
#3120=AXIS2_PLACEMENT_3D('',#3090,#3100,#3110);
#3130=CYLINDRICAL_SURFACE('',#3120,4.5);
#3140=CARTESIAN_POINT('',(24.5,450.,15.));
#3150=DIRECTION('',(0.,-1.,0.));
#3160=VECTOR('',#3150,1.);
#3170=LINE('',#3140,#3160);
#3180=EDGE_CURVE('',#2760,#1940,#3170,.T.);
#3190=ORIENTED_EDGE('',*,*,#3180,.F.);
#3200=ORIENTED_EDGE('',*,*,#1990,.T.);
#3210=CARTESIAN_POINT('',(15.5,450.,15.));
#3220=DIRECTION('',(0.,-1.,0.));
#3230=VECTOR('',#3220,1.);
#3240=LINE('',#3210,#3230);
#3250=EDGE_CURVE('',#2780,#1960,#3240,.T.);
#3260=ORIENTED_EDGE('',*,*,#3250,.T.);
#3270=ORIENTED_EDGE('',*,*,#2810,.F.);
#3280=EDGE_LOOP('',(#3270,#3260,#3200,#3190));
#3290=FACE_OUTER_BOUND('',#3280,.T.);
#3300=ADVANCED_FACE('',(#3290),#3130,.F.);
#3310=CARTESIAN_POINT('',(20.,450.,15.));
#3320=DIRECTION('',(0.,-1.,0.));
#3330=DIRECTION('',(1.,0.,0.));
#3340=AXIS2_PLACEMENT_3D('',#3310,#3320,#3330);
#3350=CYLINDRICAL_SURFACE('',#3340,4.5);
#3360=ORIENTED_EDGE('',*,*,#2790,.F.);
#3370=ORIENTED_EDGE('',*,*,#3250,.F.);
#3380=ORIENTED_EDGE('',*,*,#1970,.T.);
#3390=ORIENTED_EDGE('',*,*,#3180,.T.);
#3400=EDGE_LOOP('',(#3390,#3380,#3370,#3360));
#3410=FACE_OUTER_BOUND('',#3400,.T.);
#3420=ADVANCED_FACE('',(#3410),#3350,.F.);
#3430=CLOSED_SHELL('',(#1820,#2210,#2520,#2640,#2960,#3080,#3300,#3420,
#1100,#1320,#1440,#550));
#3440=MANIFOLD_SOLID_BREP('',#3430);
#3450=CARTESIAN_POINT('',(0.,0.,0.));
#3460=DIRECTION('',(0.,0.,1.));
#3470=DIRECTION('',(1.,0.,0.));
#3480=AXIS2_PLACEMENT_3D('',#3450,#3460,#3470);
#3490=APPLICATION_CONTEXT(' ');
#3500=APPLICATION_PROTOCOL_DEFINITION(' ','automotive_design',1998,#3490
);
#3510=PRODUCT_CONTEXT('',#3490,'mechanical');
#3520=PRODUCT_DEFINITION_CONTEXT('part definition',#3490,'design');
#3530=PRODUCT('Haltewinkel-MMS-44_40x40x30x5_44.0205.1_PX173451',
'Haltewinkel-MMS-44_40x40x30x5_44.0205.1_PX173451','',(#3510));
#3540=PRODUCT_RELATED_PRODUCT_CATEGORY('part',' ',(#3530));
#3550=PRODUCT_DEFINITION_FORMATION_WITH_SPECIFIED_SOURCE('','',#3530,
.BOUGHT.);
#3560=PRODUCT_DEFINITION('',' ',#3550,#3520);
#3570=PRODUCT_DEFINITION_SHAPE('','',#3560);
#3580=DIMENSIONAL_EXPONENTS(1.,0.,0.,0.,0.,0.,0.);
#3590=DIMENSIONAL_EXPONENTS(0.,0.,0.,0.,0.,0.,0.);
#3600=DIMENSIONAL_EXPONENTS(0.,0.,0.,0.,0.,0.,0.);
#3610=(LENGTH_UNIT() NAMED_UNIT(*) SI_UNIT(.MILLI.,.METRE.));
#3620=(NAMED_UNIT(*) PLANE_ANGLE_UNIT() SI_UNIT($,.RADIAN.));
#3630=(NAMED_UNIT(*) SI_UNIT($,.STERADIAN.) SOLID_ANGLE_UNIT());
#3640=(GEOMETRIC_REPRESENTATION_CONTEXT(3) 
GLOBAL_UNCERTAINTY_ASSIGNED_CONTEXT((#3650)) 
GLOBAL_UNIT_ASSIGNED_CONTEXT((#3610,#3620,#3630)) REPRESENTATION_CONTEXT
('',''));
#3650=UNCERTAINTY_MEASURE_WITH_UNIT(LENGTH_MEASURE(1.E-6),#3610,
'distance_accuracy_value','maximum gap value');
#3660=ADVANCED_BREP_SHAPE_REPRESENTATION('',(#3480,#3440),#3640);
#3670=SHAPE_DEFINITION_REPRESENTATION(#3570,#3660);
#3680=COLOUR_RGB('',0.690196096897125,0.886274576187134,1.);
#3690=FILL_AREA_STYLE_COLOUR('',#3680);
#3700=FILL_AREA_STYLE('',(#3690));
#3710=SURFACE_STYLE_FILL_AREA(#3700);
#3720=SURFACE_SIDE_STYLE('',(#3710));
#3730=SURFACE_STYLE_USAGE(.BOTH.,#3720);
#3740=PRESENTATION_STYLE_ASSIGNMENT((#3730));
#3750=STYLED_ITEM('',(#3740),#3440);
#3760=DRAUGHTING_MODEL('',(#3750),#3640);
#3770=CARTESIAN_POINT('',(0.,0.,-5.));
#3780=DIRECTION('',(0.,0.,1.));
#3790=DIRECTION('',(1.,0.,0.));
#3800=AXIS2_PLACEMENT_3D('',#3770,#3780,#3790);
#3810=ITEM_DEFINED_TRANSFORMATION(
'Haltewinkel-MMS-44_40x40x30x5_44.0205.1_PX173451','',#3480,#3800);
#3820=APPLICATION_CONTEXT(' ');
#3830=APPLICATION_PROTOCOL_DEFINITION(' ','automotive_design',1998,#3820
);
#3840=PRODUCT_CONTEXT('',#3820,'mechanical');
#3850=PRODUCT_DEFINITION_CONTEXT('part definition',#3820,'design');
#3860=PRODUCT('Haltewinkel-MMS-44_40x40x30x5_44.0205.1_PX173451',
'Haltewinkel-MMS-44_40x40x30x5_44.0205.1_PX173451','',(#3840));
#3870=PRODUCT_RELATED_PRODUCT_CATEGORY('part',' ',(#3860));
#3880=PRODUCT_DEFINITION_FORMATION_WITH_SPECIFIED_SOURCE('','',#3860,
.BOUGHT.);
#3890=PRODUCT_DEFINITION('',' ',#3880,#3850);
#3900=PRODUCT_DEFINITION_SHAPE('','',#3890);
#3910=DIMENSIONAL_EXPONENTS(1.,0.,0.,0.,0.,0.,0.);
#3920=DIMENSIONAL_EXPONENTS(0.,0.,0.,0.,0.,0.,0.);
#3930=DIMENSIONAL_EXPONENTS(0.,0.,0.,0.,0.,0.,0.);
#3940=(LENGTH_UNIT() NAMED_UNIT(*) SI_UNIT(.MILLI.,.METRE.));
#3950=(NAMED_UNIT(*) PLANE_ANGLE_UNIT() SI_UNIT($,.RADIAN.));
#3960=(NAMED_UNIT(*) SI_UNIT($,.STERADIAN.) SOLID_ANGLE_UNIT());
#3970=(GEOMETRIC_REPRESENTATION_CONTEXT(3) 
GLOBAL_UNCERTAINTY_ASSIGNED_CONTEXT((#3980)) 
GLOBAL_UNIT_ASSIGNED_CONTEXT((#3940,#3950,#3960)) REPRESENTATION_CONTEXT
('',''));
#3980=UNCERTAINTY_MEASURE_WITH_UNIT(LENGTH_MEASURE(1.E-6),#3940,
'distance_accuracy_value','maximum gap value');
#3990=SHAPE_REPRESENTATION('',(#3480,#3800),#3970);
#4000=SHAPE_DEFINITION_REPRESENTATION(#3900,#3990);
#4010=(REPRESENTATION_RELATIONSHIP('','',#3660,#3990) 
REPRESENTATION_RELATIONSHIP_WITH_TRANSFORMATION(#3810) 
SHAPE_REPRESENTATION_RELATIONSHIP());
#4020=NEXT_ASSEMBLY_USAGE_OCCURRENCE('1','',
'Haltewinkel-MMS-44_40x40x30x5_44.0205.1_PX173451',#3890,#3560,'');
#4030=PRODUCT_DEFINITION_SHAPE('','',#4020);
#4040=CONTEXT_DEPENDENT_SHAPE_REPRESENTATION(#4010,#4030);
ENDSEC;
END-ISO-10303-21;
