ISO-10303-21;
HEADER;
FILE_DESCRIPTION(('Creo Elements/Direct Modeling STEP Export'),'2;1');
FILE_NAME(
'//KR-CAD2/PhoenixTemp/karl.letzgus/Konvertierung/44.0205.9_Haltewinkel-
MMS-44_60x40x40x5-M8.stp','2022-03-21T 8:57:59',(''),(''),
'PTC Creo Elements/Direct Modeling STEP processor for AP214 (Solid Model
)',
'PTC Creo Elements/Direct Modeling 19.0C  15-Aug-2015 (C) Parametric Tec
hnology GmbH','');
FILE_SCHEMA(('AUTOMOTIVE_DESIGN { 1 0 10303 214 1 1 1 1 }'));
ENDSEC;
DATA;
#10=CARTESIAN_POINT('',(0.,0.,0.));
#20=DIRECTION('',(0.,0.,1.));
#30=DIRECTION('',(1.,0.,0.));
#40=AXIS2_PLACEMENT_3D('',#10,#20,#30);
#50=PLANE('',#40);
#60=CARTESIAN_POINT('',(0.,5.,0.));
#70=DIRECTION('',(1.,0.,0.));
#80=VECTOR('',#70,1.);
#90=LINE('',#60,#80);
#100=CARTESIAN_POINT('',(5.,5.,0.));
#110=VERTEX_POINT('',#100);
#120=CARTESIAN_POINT('',(60.,5.,0.));
#130=VERTEX_POINT('',#120);
#140=EDGE_CURVE('',#110,#130,#90,.T.);
#150=ORIENTED_EDGE('',*,*,#140,.T.);
#160=CARTESIAN_POINT('',(5.,0.,0.));
#170=DIRECTION('',(0.,-1.,0.));
#180=VECTOR('',#170,1.);
#190=LINE('',#160,#180);
#200=CARTESIAN_POINT('',(5.,40.,0.));
#210=VERTEX_POINT('',#200);
#220=EDGE_CURVE('',#210,#110,#190,.T.);
#230=ORIENTED_EDGE('',*,*,#220,.T.);
#240=CARTESIAN_POINT('',(0.,40.,0.));
#250=DIRECTION('',(-1.,0.,0.));
#260=VECTOR('',#250,1.);
#270=LINE('',#240,#260);
#280=CARTESIAN_POINT('',(0.,40.,0.));
#290=VERTEX_POINT('',#280);
#300=EDGE_CURVE('',#210,#290,#270,.T.);
#310=ORIENTED_EDGE('',*,*,#300,.F.);
#320=CARTESIAN_POINT('',(0.,40.,0.));
#330=DIRECTION('',(0.,-1.,0.));
#340=VECTOR('',#330,1.);
#350=LINE('',#320,#340);
#360=CARTESIAN_POINT('',(0.,0.,0.));
#370=VERTEX_POINT('',#360);
#380=EDGE_CURVE('',#290,#370,#350,.T.);
#390=ORIENTED_EDGE('',*,*,#380,.F.);
#400=CARTESIAN_POINT('',(0.,0.,0.));
#410=DIRECTION('',(1.,0.,0.));
#420=VECTOR('',#410,1.);
#430=LINE('',#400,#420);
#440=CARTESIAN_POINT('',(60.,0.,0.));
#450=VERTEX_POINT('',#440);
#460=EDGE_CURVE('',#370,#450,#430,.T.);
#470=ORIENTED_EDGE('',*,*,#460,.F.);
#480=CARTESIAN_POINT('',(60.,0.,0.));
#490=DIRECTION('',(0.,1.,0.));
#500=VECTOR('',#490,1.);
#510=LINE('',#480,#500);
#520=EDGE_CURVE('',#450,#130,#510,.T.);
#530=ORIENTED_EDGE('',*,*,#520,.F.);
#540=EDGE_LOOP('',(#530,#470,#390,#310,#230,#150));
#550=FACE_OUTER_BOUND('',#540,.T.);
#560=ADVANCED_FACE('',(#550),#50,.F.);
#570=CARTESIAN_POINT('',(5.,5.,-4.0000024));
#580=DIRECTION('',(-1.,0.,0.));
#590=DIRECTION('',(0.,1.,0.));
#600=AXIS2_PLACEMENT_3D('',#570,#580,#590);
#610=PLANE('',#600);
#620=CARTESIAN_POINT('',(5.,20.,20.));
#630=DIRECTION('',(-1.,0.,0.));
#640=DIRECTION('',(0.,1.,0.));
#650=AXIS2_PLACEMENT_3D('',#620,#630,#640);
#660=CIRCLE('',#650,4.5);
#670=CARTESIAN_POINT('',(5.,24.5,20.));
#680=VERTEX_POINT('',#670);
#690=CARTESIAN_POINT('',(5.,15.5,20.));
#700=VERTEX_POINT('',#690);
#710=EDGE_CURVE('',#680,#700,#660,.T.);
#720=ORIENTED_EDGE('',*,*,#710,.T.);
#730=EDGE_CURVE('',#700,#680,#660,.T.);
#740=ORIENTED_EDGE('',*,*,#730,.T.);
#750=EDGE_LOOP('',(#740,#720));
#760=FACE_BOUND('',#750,.T.);
#770=CARTESIAN_POINT('',(5.,5.,-4.0000024));
#780=DIRECTION('',(0.,0.,1.));
#790=VECTOR('',#780,1.);
#800=LINE('',#770,#790);
#810=CARTESIAN_POINT('',(5.,5.,40.));
#820=VERTEX_POINT('',#810);
#830=EDGE_CURVE('',#110,#820,#800,.T.);
#840=ORIENTED_EDGE('',*,*,#830,.F.);
#850=CARTESIAN_POINT('',(5.,0.,40.));
#860=DIRECTION('',(0.,-1.,0.));
#870=VECTOR('',#860,1.);
#880=LINE('',#850,#870);
#890=CARTESIAN_POINT('',(5.,40.,40.));
#900=VERTEX_POINT('',#890);
#910=EDGE_CURVE('',#900,#820,#880,.T.);
#920=ORIENTED_EDGE('',*,*,#910,.T.);
#930=CARTESIAN_POINT('',(5.,40.,0.));
#940=DIRECTION('',(0.,0.,1.));
#950=VECTOR('',#940,1.);
#960=LINE('',#930,#950);
#970=EDGE_CURVE('',#210,#900,#960,.T.);
#980=ORIENTED_EDGE('',*,*,#970,.T.);
#990=ORIENTED_EDGE('',*,*,#220,.F.);
#1000=EDGE_LOOP('',(#990,#980,#920,#840));
#1010=FACE_OUTER_BOUND('',#1000,.T.);
#1020=ADVANCED_FACE('',(#760,#1010),#610,.F.);
#1030=CARTESIAN_POINT('',(43.3,5.,-4.0000024));
#1040=DIRECTION('',(-0.,-1.,-0.));
#1050=DIRECTION('',(-1.,0.,0.));
#1060=AXIS2_PLACEMENT_3D('',#1030,#1040,#1050);
#1070=PLANE('',#1060);
#1080=CARTESIAN_POINT('',(40.,5.,20.));
#1090=DIRECTION('',(0.,1.,0.));
#1100=DIRECTION('',(1.,0.,0.));
#1110=AXIS2_PLACEMENT_3D('',#1080,#1090,#1100);
#1120=CIRCLE('',#1110,4.);
#1130=CARTESIAN_POINT('',(44.,5.,20.));
#1140=VERTEX_POINT('',#1130);
#1150=CARTESIAN_POINT('',(36.,5.,20.));
#1160=VERTEX_POINT('',#1150);
#1170=EDGE_CURVE('',#1140,#1160,#1120,.T.);
#1180=ORIENTED_EDGE('',*,*,#1170,.F.);
#1190=EDGE_CURVE('',#1160,#1140,#1120,.T.);
#1200=ORIENTED_EDGE('',*,*,#1190,.F.);
#1210=EDGE_LOOP('',(#1200,#1180));
#1220=FACE_BOUND('',#1210,.T.);
#1230=ORIENTED_EDGE('',*,*,#830,.T.);
#1240=ORIENTED_EDGE('',*,*,#140,.F.);
#1250=CARTESIAN_POINT('',(60.,5.,0.));
#1260=DIRECTION('',(0.,0.,-1.));
#1270=VECTOR('',#1260,1.);
#1280=LINE('',#1250,#1270);
#1290=CARTESIAN_POINT('',(60.,5.,40.));
#1300=VERTEX_POINT('',#1290);
#1310=EDGE_CURVE('',#1300,#130,#1280,.T.);
#1320=ORIENTED_EDGE('',*,*,#1310,.T.);
#1330=CARTESIAN_POINT('',(0.,5.,40.));
#1340=DIRECTION('',(1.,0.,0.));
#1350=VECTOR('',#1340,1.);
#1360=LINE('',#1330,#1350);
#1370=EDGE_CURVE('',#820,#1300,#1360,.T.);
#1380=ORIENTED_EDGE('',*,*,#1370,.T.);
#1390=EDGE_LOOP('',(#1380,#1320,#1240,#1230));
#1400=FACE_OUTER_BOUND('',#1390,.T.);
#1410=ADVANCED_FACE('',(#1220,#1400),#1070,.F.);
#1420=CARTESIAN_POINT('',(450.,20.,20.));
#1430=DIRECTION('',(-1.,0.,0.));
#1440=DIRECTION('',(0.,1.,0.));
#1450=AXIS2_PLACEMENT_3D('',#1420,#1430,#1440);
#1460=CYLINDRICAL_SURFACE('',#1450,4.5);
#1470=CARTESIAN_POINT('',(450.,24.5,20.));
#1480=DIRECTION('',(-1.,0.,0.));
#1490=VECTOR('',#1480,1.);
#1500=LINE('',#1470,#1490);
#1510=CARTESIAN_POINT('',(0.,24.5,20.));
#1520=VERTEX_POINT('',#1510);
#1530=EDGE_CURVE('',#680,#1520,#1500,.T.);
#1540=ORIENTED_EDGE('',*,*,#1530,.F.);
#1550=CARTESIAN_POINT('',(0.,20.,20.));
#1560=DIRECTION('',(-1.,0.,0.));
#1570=DIRECTION('',(0.,1.,0.));
#1580=AXIS2_PLACEMENT_3D('',#1550,#1560,#1570);
#1590=CIRCLE('',#1580,4.5);
#1600=CARTESIAN_POINT('',(0.,15.5,20.));
#1610=VERTEX_POINT('',#1600);
#1620=EDGE_CURVE('',#1610,#1520,#1590,.T.);
#1630=ORIENTED_EDGE('',*,*,#1620,.T.);
#1640=CARTESIAN_POINT('',(450.,15.5,20.));
#1650=DIRECTION('',(-1.,0.,0.));
#1660=VECTOR('',#1650,1.);
#1670=LINE('',#1640,#1660);
#1680=EDGE_CURVE('',#700,#1610,#1670,.T.);
#1690=ORIENTED_EDGE('',*,*,#1680,.T.);
#1700=ORIENTED_EDGE('',*,*,#730,.F.);
#1710=EDGE_LOOP('',(#1700,#1690,#1630,#1540));
#1720=FACE_OUTER_BOUND('',#1710,.T.);
#1730=ADVANCED_FACE('',(#1720),#1460,.F.);
#1740=CARTESIAN_POINT('',(40.,5.,20.));
#1750=DIRECTION('',(0.,1.,0.));
#1760=DIRECTION('',(1.,0.,0.));
#1770=AXIS2_PLACEMENT_3D('',#1740,#1750,#1760);
#1780=CYLINDRICAL_SURFACE('',#1770,3.4);
#1790=CARTESIAN_POINT('',(36.6,5.,20.));
#1800=DIRECTION('',(0.,1.,0.));
#1810=VECTOR('',#1800,1.);
#1820=LINE('',#1790,#1810);
#1830=CARTESIAN_POINT('',(36.6,0.34641,20.));
#1840=VERTEX_POINT('',#1830);
#1850=CARTESIAN_POINT('',(36.6,4.65358983848622,20.));
#1860=VERTEX_POINT('',#1850);
#1870=EDGE_CURVE('',#1840,#1860,#1820,.T.);
#1880=ORIENTED_EDGE('',*,*,#1870,.T.);
#1890=CARTESIAN_POINT('',(40.,0.34641,20.));
#1900=DIRECTION('',(0.,1.,0.));
#1910=DIRECTION('',(1.,0.,0.));
#1920=AXIS2_PLACEMENT_3D('',#1890,#1900,#1910);
#1930=CIRCLE('',#1920,3.4);
#1940=CARTESIAN_POINT('',(43.4,0.34641,20.));
#1950=VERTEX_POINT('',#1940);
#1960=EDGE_CURVE('',#1840,#1950,#1930,.T.);
#1970=ORIENTED_EDGE('',*,*,#1960,.F.);
#1980=CARTESIAN_POINT('',(43.4,5.,20.));
#1990=DIRECTION('',(0.,1.,0.));
#2000=VECTOR('',#1990,1.);
#2010=LINE('',#1980,#2000);
#2020=CARTESIAN_POINT('',(43.4,4.65358983848622,20.));
#2030=VERTEX_POINT('',#2020);
#2040=EDGE_CURVE('',#1950,#2030,#2010,.T.);
#2050=ORIENTED_EDGE('',*,*,#2040,.F.);
#2060=CARTESIAN_POINT('',(40.,4.65358983848622,20.));
#2070=DIRECTION('',(0.,1.,0.));
#2080=DIRECTION('',(1.,0.,0.));
#2090=AXIS2_PLACEMENT_3D('',#2060,#2070,#2080);
#2100=CIRCLE('',#2090,3.4);
#2110=EDGE_CURVE('',#1860,#2030,#2100,.T.);
#2120=ORIENTED_EDGE('',*,*,#2110,.T.);
#2130=EDGE_LOOP('',(#2120,#2050,#1970,#1880));
#2140=FACE_OUTER_BOUND('',#2130,.T.);
#2150=ADVANCED_FACE('M8x1.25_5674071',(#2140),#1780,.F.);
#2160=COLOUR_RGB('',1.,0.,0.);
#2170=FILL_AREA_STYLE_COLOUR('',#2160);
#2180=FILL_AREA_STYLE('',(#2170));
#2190=SURFACE_STYLE_FILL_AREA(#2180);
#2200=SURFACE_SIDE_STYLE('',(#2190));
#2210=SURFACE_STYLE_USAGE(.BOTH.,#2200);
#2220=PRESENTATION_STYLE_ASSIGNMENT((#2210));
#2230=CARTESIAN_POINT('',(40.,0.34641,20.));
#2240=DIRECTION('',(0.,-1.,0.));
#2250=DIRECTION('',(-1.,0.,0.));
#2260=AXIS2_PLACEMENT_3D('',#2230,#2240,#2250);
#2270=CONICAL_SURFACE('',#2260,3.4,1.0471975511966);
#2280=CARTESIAN_POINT('',(36.6,0.34641,20.));
#2290=DIRECTION('',(-0.866025403784438,-0.500000000000001,0.));
#2300=VECTOR('',#2290,3.92598183048946);
#2310=LINE('',#2280,#2300);
#2320=CARTESIAN_POINT('',(36.0000002797501,-1.11022302462516E-16,20.));
#2330=VERTEX_POINT('',#2320);
#2340=EDGE_CURVE('',#1840,#2330,#2310,.T.);
#2350=ORIENTED_EDGE('',*,*,#2340,.F.);
#2360=CARTESIAN_POINT('',(40.,0.,20.));
#2370=DIRECTION('',(0.,1.,0.));
#2380=DIRECTION('',(1.,0.,0.));
#2390=AXIS2_PLACEMENT_3D('',#2360,#2370,#2380);
#2400=CIRCLE('',#2390,3.99999972024993);
#2410=CARTESIAN_POINT('',(43.9999997202499,-1.11022302462516E-16,20.));
#2420=VERTEX_POINT('',#2410);
#2430=EDGE_CURVE('',#2330,#2420,#2400,.T.);
#2440=ORIENTED_EDGE('',*,*,#2430,.F.);
#2450=CARTESIAN_POINT('',(43.4,0.34641,20.));
#2460=DIRECTION('',(0.866025403784438,-0.500000000000001,0.));
#2470=VECTOR('',#2460,3.92598183048946);
#2480=LINE('',#2450,#2470);
#2490=EDGE_CURVE('',#1950,#2420,#2480,.T.);
#2500=ORIENTED_EDGE('',*,*,#2490,.T.);
#2510=ORIENTED_EDGE('',*,*,#1960,.T.);
#2520=EDGE_LOOP('',(#2510,#2500,#2440,#2350));
#2530=FACE_OUTER_BOUND('',#2520,.T.);
#2540=ADVANCED_FACE('',(#2530),#2270,.F.);
#2550=CARTESIAN_POINT('',(40.,4.65358983848622,20.));
#2560=DIRECTION('',(0.,1.,0.));
#2570=DIRECTION('',(1.,0.,0.));
#2580=AXIS2_PLACEMENT_3D('',#2550,#2560,#2570);
#2590=CONICAL_SURFACE('',#2580,3.4,1.0471975511966);
#2600=CARTESIAN_POINT('',(43.4,4.65358983848622,20.));
#2610=DIRECTION('',(0.866025403784439,0.499999999999999,0.));
#2620=VECTOR('',#2610,3.92598183048945);
#2630=LINE('',#2600,#2620);
#2640=EDGE_CURVE('',#2030,#1140,#2630,.T.);
#2650=ORIENTED_EDGE('',*,*,#2640,.F.);
#2660=ORIENTED_EDGE('',*,*,#1190,.T.);
#2670=CARTESIAN_POINT('',(36.6,4.65358983848622,20.));
#2680=DIRECTION('',(-0.866025403784439,0.499999999999999,0.));
#2690=VECTOR('',#2680,3.92598183048945);
#2700=LINE('',#2670,#2690);
#2710=EDGE_CURVE('',#1860,#1160,#2700,.T.);
#2720=ORIENTED_EDGE('',*,*,#2710,.T.);
#2730=ORIENTED_EDGE('',*,*,#2110,.F.);
#2740=EDGE_LOOP('',(#2730,#2720,#2660,#2650));
#2750=FACE_OUTER_BOUND('',#2740,.T.);
#2760=ADVANCED_FACE('',(#2750),#2590,.F.);
#2770=CARTESIAN_POINT('',(40.,0.34641,20.));
#2780=DIRECTION('',(0.,-1.,0.));
#2790=DIRECTION('',(-1.,0.,0.));
#2800=AXIS2_PLACEMENT_3D('',#2770,#2780,#2790);
#2810=CONICAL_SURFACE('',#2800,3.4,1.0471975511966);
#2820=EDGE_CURVE('',#1950,#1840,#1930,.T.);
#2830=ORIENTED_EDGE('',*,*,#2820,.T.);
#2840=ORIENTED_EDGE('',*,*,#2490,.F.);
#2850=EDGE_CURVE('',#2420,#2330,#2400,.T.);
#2860=ORIENTED_EDGE('',*,*,#2850,.F.);
#2870=ORIENTED_EDGE('',*,*,#2340,.T.);
#2880=EDGE_LOOP('',(#2870,#2860,#2840,#2830));
#2890=FACE_OUTER_BOUND('',#2880,.T.);
#2900=ADVANCED_FACE('',(#2890),#2810,.F.);
#2910=CARTESIAN_POINT('',(450.,20.,20.));
#2920=DIRECTION('',(-1.,0.,0.));
#2930=DIRECTION('',(0.,1.,0.));
#2940=AXIS2_PLACEMENT_3D('',#2910,#2920,#2930);
#2950=CYLINDRICAL_SURFACE('',#2940,4.5);
#2960=ORIENTED_EDGE('',*,*,#710,.F.);
#2970=ORIENTED_EDGE('',*,*,#1680,.F.);
#2980=EDGE_CURVE('',#1520,#1610,#1590,.T.);
#2990=ORIENTED_EDGE('',*,*,#2980,.T.);
#3000=ORIENTED_EDGE('',*,*,#1530,.T.);
#3010=EDGE_LOOP('',(#3000,#2990,#2970,#2960));
#3020=FACE_OUTER_BOUND('',#3010,.T.);
#3030=ADVANCED_FACE('',(#3020),#2950,.F.);
#3040=CARTESIAN_POINT('',(40.,5.,20.));
#3050=DIRECTION('',(0.,1.,0.));
#3060=DIRECTION('',(1.,0.,0.));
#3070=AXIS2_PLACEMENT_3D('',#3040,#3050,#3060);
#3080=CYLINDRICAL_SURFACE('',#3070,3.4);
#3090=ORIENTED_EDGE('',*,*,#2820,.F.);
#3100=ORIENTED_EDGE('',*,*,#1870,.F.);
#3110=EDGE_CURVE('',#2030,#1860,#2100,.T.);
#3120=ORIENTED_EDGE('',*,*,#3110,.T.);
#3130=ORIENTED_EDGE('',*,*,#2040,.T.);
#3140=EDGE_LOOP('',(#3130,#3120,#3100,#3090));
#3150=FACE_OUTER_BOUND('',#3140,.T.);
#3160=ADVANCED_FACE('',(#3150),#3080,.F.);
#3170=COLOUR_RGB('',1.,0.,0.);
#3180=FILL_AREA_STYLE_COLOUR('',#3170);
#3190=FILL_AREA_STYLE('',(#3180));
#3200=SURFACE_STYLE_FILL_AREA(#3190);
#3210=SURFACE_SIDE_STYLE('',(#3200));
#3220=SURFACE_STYLE_USAGE(.BOTH.,#3210);
#3230=PRESENTATION_STYLE_ASSIGNMENT((#3220));
#3240=CARTESIAN_POINT('',(40.,4.65358983848622,20.));
#3250=DIRECTION('',(0.,1.,0.));
#3260=DIRECTION('',(1.,0.,0.));
#3270=AXIS2_PLACEMENT_3D('',#3240,#3250,#3260);
#3280=CONICAL_SURFACE('',#3270,3.4,1.0471975511966);
#3290=ORIENTED_EDGE('',*,*,#3110,.F.);
#3300=ORIENTED_EDGE('',*,*,#2710,.F.);
#3310=ORIENTED_EDGE('',*,*,#1170,.T.);
#3320=ORIENTED_EDGE('',*,*,#2640,.T.);
#3330=EDGE_LOOP('',(#3320,#3310,#3300,#3290));
#3340=FACE_OUTER_BOUND('',#3330,.T.);
#3350=ADVANCED_FACE('',(#3340),#3280,.F.);
#3360=CARTESIAN_POINT('',(0.,0.,40.));
#3370=DIRECTION('',(0.,0.,1.));
#3380=DIRECTION('',(1.,0.,0.));
#3390=AXIS2_PLACEMENT_3D('',#3360,#3370,#3380);
#3400=PLANE('',#3390);
#3410=CARTESIAN_POINT('',(0.,0.,40.));
#3420=DIRECTION('',(1.,0.,0.));
#3430=VECTOR('',#3420,1.);
#3440=LINE('',#3410,#3430);
#3450=CARTESIAN_POINT('',(0.,0.,40.));
#3460=VERTEX_POINT('',#3450);
#3470=CARTESIAN_POINT('',(60.,0.,40.));
#3480=VERTEX_POINT('',#3470);
#3490=EDGE_CURVE('',#3460,#3480,#3440,.T.);
#3500=ORIENTED_EDGE('',*,*,#3490,.T.);
#3510=CARTESIAN_POINT('',(0.,40.,40.));
#3520=DIRECTION('',(0.,-1.,0.));
#3530=VECTOR('',#3520,1.);
#3540=LINE('',#3510,#3530);
#3550=CARTESIAN_POINT('',(0.,40.,40.));
#3560=VERTEX_POINT('',#3550);
#3570=EDGE_CURVE('',#3560,#3460,#3540,.T.);
#3580=ORIENTED_EDGE('',*,*,#3570,.T.);
#3590=CARTESIAN_POINT('',(0.,40.,40.));
#3600=DIRECTION('',(-1.,0.,0.));
#3610=VECTOR('',#3600,1.);
#3620=LINE('',#3590,#3610);
#3630=EDGE_CURVE('',#900,#3560,#3620,.T.);
#3640=ORIENTED_EDGE('',*,*,#3630,.T.);
#3650=ORIENTED_EDGE('',*,*,#910,.F.);
#3660=ORIENTED_EDGE('',*,*,#1370,.F.);
#3670=CARTESIAN_POINT('',(60.,0.,40.));
#3680=DIRECTION('',(0.,1.,0.));
#3690=VECTOR('',#3680,1.);
#3700=LINE('',#3670,#3690);
#3710=EDGE_CURVE('',#3480,#1300,#3700,.T.);
#3720=ORIENTED_EDGE('',*,*,#3710,.T.);
#3730=EDGE_LOOP('',(#3720,#3660,#3650,#3640,#3580,#3500));
#3740=FACE_OUTER_BOUND('',#3730,.T.);
#3750=ADVANCED_FACE('',(#3740),#3400,.T.);
#3760=CARTESIAN_POINT('',(0.,0.,0.));
#3770=DIRECTION('',(-1.,0.,0.));
#3780=DIRECTION('',(0.,1.,0.));
#3790=AXIS2_PLACEMENT_3D('',#3760,#3770,#3780);
#3800=PLANE('',#3790);
#3810=ORIENTED_EDGE('',*,*,#2980,.F.);
#3820=ORIENTED_EDGE('',*,*,#1620,.F.);
#3830=EDGE_LOOP('',(#3820,#3810));
#3840=FACE_BOUND('',#3830,.T.);
#3850=CARTESIAN_POINT('',(0.,40.,0.));
#3860=DIRECTION('',(0.,0.,1.));
#3870=VECTOR('',#3860,1.);
#3880=LINE('',#3850,#3870);
#3890=EDGE_CURVE('',#290,#3560,#3880,.T.);
#3900=ORIENTED_EDGE('',*,*,#3890,.F.);
#3910=ORIENTED_EDGE('',*,*,#3570,.F.);
#3920=CARTESIAN_POINT('',(0.,0.,0.));
#3930=DIRECTION('',(0.,0.,1.));
#3940=VECTOR('',#3930,1.);
#3950=LINE('',#3920,#3940);
#3960=EDGE_CURVE('',#370,#3460,#3950,.T.);
#3970=ORIENTED_EDGE('',*,*,#3960,.T.);
#3980=ORIENTED_EDGE('',*,*,#380,.T.);
#3990=EDGE_LOOP('',(#3980,#3970,#3910,#3900));
#4000=FACE_OUTER_BOUND('',#3990,.T.);
#4010=ADVANCED_FACE('',(#3840,#4000),#3800,.T.);
#4020=CARTESIAN_POINT('',(40.,0.,0.));
#4030=DIRECTION('',(-0.,-1.,-0.));
#4040=DIRECTION('',(-1.,0.,0.));
#4050=AXIS2_PLACEMENT_3D('',#4020,#4030,#4040);
#4060=PLANE('',#4050);
#4070=ORIENTED_EDGE('',*,*,#2850,.T.);
#4080=ORIENTED_EDGE('',*,*,#2430,.T.);
#4090=EDGE_LOOP('',(#4080,#4070));
#4100=FACE_BOUND('',#4090,.T.);
#4110=ORIENTED_EDGE('',*,*,#3960,.F.);
#4120=ORIENTED_EDGE('',*,*,#3490,.F.);
#4130=CARTESIAN_POINT('',(60.,0.,0.));
#4140=DIRECTION('',(0.,0.,1.));
#4150=VECTOR('',#4140,1.);
#4160=LINE('',#4130,#4150);
#4170=EDGE_CURVE('',#450,#3480,#4160,.T.);
#4180=ORIENTED_EDGE('',*,*,#4170,.T.);
#4190=ORIENTED_EDGE('',*,*,#460,.T.);
#4200=EDGE_LOOP('',(#4190,#4180,#4120,#4110));
#4210=FACE_OUTER_BOUND('',#4200,.T.);
#4220=ADVANCED_FACE('',(#4100,#4210),#4060,.T.);
#4230=CARTESIAN_POINT('',(60.,40.,0.));
#4240=DIRECTION('',(1.,0.,0.));
#4250=DIRECTION('',(0.,-1.,0.));
#4260=AXIS2_PLACEMENT_3D('',#4230,#4240,#4250);
#4270=PLANE('',#4260);
#4280=ORIENTED_EDGE('',*,*,#520,.T.);
#4290=ORIENTED_EDGE('',*,*,#4170,.F.);
#4300=ORIENTED_EDGE('',*,*,#3710,.F.);
#4310=ORIENTED_EDGE('',*,*,#1310,.F.);
#4320=EDGE_LOOP('',(#4310,#4300,#4290,#4280));
#4330=FACE_OUTER_BOUND('',#4320,.T.);
#4340=ADVANCED_FACE('',(#4330),#4270,.T.);
#4350=CARTESIAN_POINT('',(0.,40.,0.));
#4360=DIRECTION('',(-0.,1.,0.));
#4370=DIRECTION('',(1.,0.,0.));
#4380=AXIS2_PLACEMENT_3D('',#4350,#4360,#4370);
#4390=PLANE('',#4380);
#4400=ORIENTED_EDGE('',*,*,#970,.F.);
#4410=ORIENTED_EDGE('',*,*,#3630,.F.);
#4420=ORIENTED_EDGE('',*,*,#3890,.T.);
#4430=ORIENTED_EDGE('',*,*,#300,.T.);
#4440=EDGE_LOOP('',(#4430,#4420,#4410,#4400));
#4450=FACE_OUTER_BOUND('',#4440,.T.);
#4460=ADVANCED_FACE('',(#4450),#4390,.T.);
#4470=CLOSED_SHELL('',(#4010,#4220,#4340,#4460,#3750,#560,#1020,#1410,
#1730,#2150,#2540,#2760,#2900,#3030,#3160,#3350));
#4480=MANIFOLD_SOLID_BREP('',#4470);
#4490=CARTESIAN_POINT('',(0.,0.,0.));
#4500=DIRECTION('',(0.,0.,1.));
#4510=DIRECTION('',(1.,0.,0.));
#4520=AXIS2_PLACEMENT_3D('',#4490,#4500,#4510);
#4530=APPLICATION_CONTEXT(' ');
#4540=APPLICATION_PROTOCOL_DEFINITION(' ','automotive_design',1998,#4530
);
#4550=PRODUCT_CONTEXT('',#4530,'mechanical');
#4560=PRODUCT_DEFINITION_CONTEXT('part definition',#4530,'design');
#4570=PRODUCT('Haltewinkel-MMS-44_60x40x40x5-M8_44.0205.9_PX173462',
'Haltewinkel-MMS-44_60x40x40x5-M8_44.0205.9_PX173462','',(#4550));
#4580=PRODUCT_RELATED_PRODUCT_CATEGORY('part',' ',(#4570));
#4590=PRODUCT_DEFINITION_FORMATION_WITH_SPECIFIED_SOURCE('','',#4570,
.BOUGHT.);
#4600=PRODUCT_DEFINITION('',' ',#4590,#4560);
#4610=PRODUCT_DEFINITION_SHAPE('','',#4600);
#4620=DIMENSIONAL_EXPONENTS(1.,0.,0.,0.,0.,0.,0.);
#4630=DIMENSIONAL_EXPONENTS(0.,0.,0.,0.,0.,0.,0.);
#4640=DIMENSIONAL_EXPONENTS(0.,0.,0.,0.,0.,0.,0.);
#4650=(LENGTH_UNIT() NAMED_UNIT(*) SI_UNIT(.MILLI.,.METRE.));
#4660=(NAMED_UNIT(*) PLANE_ANGLE_UNIT() SI_UNIT($,.RADIAN.));
#4670=(NAMED_UNIT(*) SI_UNIT($,.STERADIAN.) SOLID_ANGLE_UNIT());
#4680=(GEOMETRIC_REPRESENTATION_CONTEXT(3) 
GLOBAL_UNCERTAINTY_ASSIGNED_CONTEXT((#4690)) 
GLOBAL_UNIT_ASSIGNED_CONTEXT((#4650,#4660,#4670)) REPRESENTATION_CONTEXT
('',''));
#4690=UNCERTAINTY_MEASURE_WITH_UNIT(LENGTH_MEASURE(1.E-6),#4650,
'distance_accuracy_value','maximum gap value');
#4700=ADVANCED_BREP_SHAPE_REPRESENTATION('',(#4520,#4480),#4680);
#4710=SHAPE_DEFINITION_REPRESENTATION(#4610,#4700);
#4720=COLOUR_RGB('',0.690196096897125,0.886274576187134,1.);
#4730=FILL_AREA_STYLE_COLOUR('',#4720);
#4740=FILL_AREA_STYLE('',(#4730));
#4750=SURFACE_STYLE_FILL_AREA(#4740);
#4760=SURFACE_SIDE_STYLE('',(#4750));
#4770=SURFACE_STYLE_USAGE(.BOTH.,#4760);
#4780=PRESENTATION_STYLE_ASSIGNMENT((#4770));
#4790=STYLED_ITEM('',(#4780),#4480);
#4800=OVER_RIDING_STYLED_ITEM('',(#2220),#2150,#4790);
#4810=OVER_RIDING_STYLED_ITEM('',(#3230),#3160,#4790);
#4820=DRAUGHTING_MODEL('',(#4790,#4800,#4810),#4680);
#4830=CARTESIAN_POINT('',(40.,0.,-5.));
#4840=DIRECTION('',(-1.,0.,0.));
#4850=DIRECTION('',(0.,0.,1.));
#4860=AXIS2_PLACEMENT_3D('',#4830,#4840,#4850);
#4870=ITEM_DEFINED_TRANSFORMATION(
'Haltewinkel-MMS-44_60x40x40x5-M8_44.0205.9_PX173462','',#4520,#4860);
#4880=APPLICATION_CONTEXT(' ');
#4890=APPLICATION_PROTOCOL_DEFINITION(' ','automotive_design',1998,#4880
);
#4900=PRODUCT_CONTEXT('',#4880,'mechanical');
#4910=PRODUCT_DEFINITION_CONTEXT('part definition',#4880,'design');
#4920=PRODUCT('Haltewinkel-MMS-44_60x40x40x5-M8_44.0205.9_PX173462',
'Haltewinkel-MMS-44_60x40x40x5-M8_44.0205.9_PX173462','',(#4900));
#4930=PRODUCT_RELATED_PRODUCT_CATEGORY('part',' ',(#4920));
#4940=PRODUCT_DEFINITION_FORMATION_WITH_SPECIFIED_SOURCE('','',#4920,
.BOUGHT.);
#4950=PRODUCT_DEFINITION('',' ',#4940,#4910);
#4960=PRODUCT_DEFINITION_SHAPE('','',#4950);
#4970=DIMENSIONAL_EXPONENTS(1.,0.,0.,0.,0.,0.,0.);
#4980=DIMENSIONAL_EXPONENTS(0.,0.,0.,0.,0.,0.,0.);
#4990=DIMENSIONAL_EXPONENTS(0.,0.,0.,0.,0.,0.,0.);
#5000=(LENGTH_UNIT() NAMED_UNIT(*) SI_UNIT(.MILLI.,.METRE.));
#5010=(NAMED_UNIT(*) PLANE_ANGLE_UNIT() SI_UNIT($,.RADIAN.));
#5020=(NAMED_UNIT(*) SI_UNIT($,.STERADIAN.) SOLID_ANGLE_UNIT());
#5030=(GEOMETRIC_REPRESENTATION_CONTEXT(3) 
GLOBAL_UNCERTAINTY_ASSIGNED_CONTEXT((#5040)) 
GLOBAL_UNIT_ASSIGNED_CONTEXT((#5000,#5010,#5020)) REPRESENTATION_CONTEXT
('',''));
#5040=UNCERTAINTY_MEASURE_WITH_UNIT(LENGTH_MEASURE(1.E-6),#5000,
'distance_accuracy_value','maximum gap value');
#5050=SHAPE_REPRESENTATION('',(#4520,#4860),#5030);
#5060=SHAPE_DEFINITION_REPRESENTATION(#4960,#5050);
#5070=(REPRESENTATION_RELATIONSHIP('','',#4700,#5050) 
REPRESENTATION_RELATIONSHIP_WITH_TRANSFORMATION(#4870) 
SHAPE_REPRESENTATION_RELATIONSHIP());
#5080=NEXT_ASSEMBLY_USAGE_OCCURRENCE('1','',
'Haltewinkel-MMS-44_60x40x40x5-M8_44.0205.9_PX173462',#4950,#4600,'');
#5090=PRODUCT_DEFINITION_SHAPE('','',#5080);
#5100=CONTEXT_DEPENDENT_SHAPE_REPRESENTATION(#5070,#5090);
ENDSEC;
END-ISO-10303-21;
