ISO-10303-21;
HEADER;
FILE_DESCRIPTION(('Creo Elements/Direct Modeling STEP Export'),'2;1');
FILE_NAME(
'//KR-CAD2/PhoenixTemp/karl.letzgus/Konvertierung/44.0249_Flansch-MMS-44
_40x40x12-M16.stp','2022-03-21T 8:55:00',(''),(''),
'PTC Creo Elements/Direct Modeling STEP processor for AP214 (Solid Model
)',
'PTC Creo Elements/Direct Modeling 19.0C  15-Aug-2015 (C) Parametric Tec
hnology GmbH','');
FILE_SCHEMA(('AUTOMOTIVE_DESIGN { 1 0 10303 214 1 1 1 1 }'));
ENDSEC;
DATA;
#10=CARTESIAN_POINT('',(0.,0.,0.));
#20=DIRECTION('',(0.,0.,1.));
#30=DIRECTION('',(1.,0.,0.));
#40=AXIS2_PLACEMENT_3D('',#10,#20,#30);
#50=PLANE('',#40);
#60=CARTESIAN_POINT('',(35.,5.,0.));
#70=DIRECTION('',(0.,0.,-1.));
#80=DIRECTION('',(1.,0.,0.));
#90=AXIS2_PLACEMENT_3D('',#60,#70,#80);
#100=CIRCLE('',#90,3.3);
#110=CARTESIAN_POINT('',(38.3,5.,0.));
#120=VERTEX_POINT('',#110);
#130=CARTESIAN_POINT('',(31.7,5.,0.));
#140=VERTEX_POINT('',#130);
#150=EDGE_CURVE('',#120,#140,#100,.T.);
#160=ORIENTED_EDGE('',*,*,#150,.F.);
#170=EDGE_CURVE('',#140,#120,#100,.T.);
#180=ORIENTED_EDGE('',*,*,#170,.F.);
#190=EDGE_LOOP('',(#180,#160));
#200=FACE_BOUND('',#190,.T.);
#210=CARTESIAN_POINT('',(20.,20.,0.));
#220=DIRECTION('',(0.,0.,1.));
#230=DIRECTION('',(1.,0.,0.));
#240=AXIS2_PLACEMENT_3D('',#210,#220,#230);
#250=CIRCLE('',#240,7.99999953374989);
#260=CARTESIAN_POINT('',(27.9999995337499,20.,1.11022302462516E-16));
#270=VERTEX_POINT('',#260);
#280=CARTESIAN_POINT('',(12.0000004662501,20.,0.));
#290=VERTEX_POINT('',#280);
#300=EDGE_CURVE('',#270,#290,#250,.T.);
#310=ORIENTED_EDGE('',*,*,#300,.T.);
#320=EDGE_CURVE('',#290,#270,#250,.T.);
#330=ORIENTED_EDGE('',*,*,#320,.T.);
#340=EDGE_LOOP('',(#330,#310));
#350=FACE_BOUND('',#340,.T.);
#360=CARTESIAN_POINT('',(5.,35.,0.));
#370=DIRECTION('',(0.,0.,-1.));
#380=DIRECTION('',(1.,0.,0.));
#390=AXIS2_PLACEMENT_3D('',#360,#370,#380);
#400=CIRCLE('',#390,3.3);
#410=CARTESIAN_POINT('',(8.3,35.,0.));
#420=VERTEX_POINT('',#410);
#430=CARTESIAN_POINT('',(1.7,35.,0.));
#440=VERTEX_POINT('',#430);
#450=EDGE_CURVE('',#420,#440,#400,.T.);
#460=ORIENTED_EDGE('',*,*,#450,.F.);
#470=EDGE_CURVE('',#440,#420,#400,.T.);
#480=ORIENTED_EDGE('',*,*,#470,.F.);
#490=EDGE_LOOP('',(#480,#460));
#500=FACE_BOUND('',#490,.T.);
#510=CARTESIAN_POINT('',(0.,40.,0.));
#520=DIRECTION('',(0.,-1.,0.));
#530=VECTOR('',#520,1.);
#540=LINE('',#510,#530);
#550=CARTESIAN_POINT('',(0.,40.,0.));
#560=VERTEX_POINT('',#550);
#570=CARTESIAN_POINT('',(0.,0.,0.));
#580=VERTEX_POINT('',#570);
#590=EDGE_CURVE('',#560,#580,#540,.T.);
#600=ORIENTED_EDGE('',*,*,#590,.F.);
#610=CARTESIAN_POINT('',(0.,0.,0.));
#620=DIRECTION('',(1.,0.,0.));
#630=VECTOR('',#620,1.);
#640=LINE('',#610,#630);
#650=CARTESIAN_POINT('',(40.,0.,0.));
#660=VERTEX_POINT('',#650);
#670=EDGE_CURVE('',#580,#660,#640,.T.);
#680=ORIENTED_EDGE('',*,*,#670,.F.);
#690=CARTESIAN_POINT('',(40.,0.,0.));
#700=DIRECTION('',(0.,1.,0.));
#710=VECTOR('',#700,1.);
#720=LINE('',#690,#710);
#730=CARTESIAN_POINT('',(40.,40.,0.));
#740=VERTEX_POINT('',#730);
#750=EDGE_CURVE('',#660,#740,#720,.T.);
#760=ORIENTED_EDGE('',*,*,#750,.F.);
#770=CARTESIAN_POINT('',(40.,40.,0.));
#780=DIRECTION('',(-1.,0.,0.));
#790=VECTOR('',#780,1.);
#800=LINE('',#770,#790);
#810=EDGE_CURVE('',#740,#560,#800,.T.);
#820=ORIENTED_EDGE('',*,*,#810,.F.);
#830=EDGE_LOOP('',(#820,#760,#680,#600));
#840=FACE_OUTER_BOUND('',#830,.T.);
#850=ADVANCED_FACE('',(#200,#350,#500,#840),#50,.F.);
#860=CARTESIAN_POINT('',(0.,0.,4.));
#870=DIRECTION('',(0.,0.,1.));
#880=DIRECTION('',(1.,0.,0.));
#890=AXIS2_PLACEMENT_3D('',#860,#870,#880);
#900=PLANE('',#890);
#910=CARTESIAN_POINT('',(20.,20.,4.));
#920=DIRECTION('',(0.,0.,1.));
#930=DIRECTION('',(1.,0.,0.));
#940=AXIS2_PLACEMENT_3D('',#910,#920,#930);
#950=CIRCLE('',#940,11.);
#960=CARTESIAN_POINT('',(31.,20.,4.));
#970=VERTEX_POINT('',#960);
#980=CARTESIAN_POINT('',(9.,20.,4.));
#990=VERTEX_POINT('',#980);
#1000=EDGE_CURVE('',#970,#990,#950,.T.);
#1010=ORIENTED_EDGE('',*,*,#1000,.F.);
#1020=EDGE_CURVE('',#990,#970,#950,.T.);
#1030=ORIENTED_EDGE('',*,*,#1020,.F.);
#1040=EDGE_LOOP('',(#1030,#1010));
#1050=FACE_BOUND('',#1040,.T.);
#1060=CARTESIAN_POINT('',(5.,35.,4.));
#1070=DIRECTION('',(0.,0.,-1.));
#1080=DIRECTION('',(1.,0.,0.));
#1090=AXIS2_PLACEMENT_3D('',#1060,#1070,#1080);
#1100=CIRCLE('',#1090,3.3);
#1110=CARTESIAN_POINT('',(8.3,35.,4.));
#1120=VERTEX_POINT('',#1110);
#1130=CARTESIAN_POINT('',(1.7,35.,4.));
#1140=VERTEX_POINT('',#1130);
#1150=EDGE_CURVE('',#1120,#1140,#1100,.T.);
#1160=ORIENTED_EDGE('',*,*,#1150,.T.);
#1170=EDGE_CURVE('',#1140,#1120,#1100,.T.);
#1180=ORIENTED_EDGE('',*,*,#1170,.T.);
#1190=EDGE_LOOP('',(#1180,#1160));
#1200=FACE_BOUND('',#1190,.T.);
#1210=CARTESIAN_POINT('',(35.,5.,4.));
#1220=DIRECTION('',(0.,0.,-1.));
#1230=DIRECTION('',(1.,0.,0.));
#1240=AXIS2_PLACEMENT_3D('',#1210,#1220,#1230);
#1250=CIRCLE('',#1240,3.3);
#1260=CARTESIAN_POINT('',(38.3,5.,4.));
#1270=VERTEX_POINT('',#1260);
#1280=CARTESIAN_POINT('',(31.7,5.,4.));
#1290=VERTEX_POINT('',#1280);
#1300=EDGE_CURVE('',#1270,#1290,#1250,.T.);
#1310=ORIENTED_EDGE('',*,*,#1300,.T.);
#1320=EDGE_CURVE('',#1290,#1270,#1250,.T.);
#1330=ORIENTED_EDGE('',*,*,#1320,.T.);
#1340=EDGE_LOOP('',(#1330,#1310));
#1350=FACE_BOUND('',#1340,.T.);
#1360=CARTESIAN_POINT('',(40.,40.,4.));
#1370=DIRECTION('',(-1.,0.,0.));
#1380=VECTOR('',#1370,1.);
#1390=LINE('',#1360,#1380);
#1400=CARTESIAN_POINT('',(40.,40.,4.));
#1410=VERTEX_POINT('',#1400);
#1420=CARTESIAN_POINT('',(0.,40.,4.));
#1430=VERTEX_POINT('',#1420);
#1440=EDGE_CURVE('',#1410,#1430,#1390,.T.);
#1450=ORIENTED_EDGE('',*,*,#1440,.T.);
#1460=CARTESIAN_POINT('',(40.,0.,4.));
#1470=DIRECTION('',(0.,1.,0.));
#1480=VECTOR('',#1470,1.);
#1490=LINE('',#1460,#1480);
#1500=CARTESIAN_POINT('',(40.,0.,4.));
#1510=VERTEX_POINT('',#1500);
#1520=EDGE_CURVE('',#1510,#1410,#1490,.T.);
#1530=ORIENTED_EDGE('',*,*,#1520,.T.);
#1540=CARTESIAN_POINT('',(0.,0.,4.));
#1550=DIRECTION('',(1.,0.,0.));
#1560=VECTOR('',#1550,1.);
#1570=LINE('',#1540,#1560);
#1580=CARTESIAN_POINT('',(0.,0.,4.));
#1590=VERTEX_POINT('',#1580);
#1600=EDGE_CURVE('',#1590,#1510,#1570,.T.);
#1610=ORIENTED_EDGE('',*,*,#1600,.T.);
#1620=CARTESIAN_POINT('',(0.,40.,4.));
#1630=DIRECTION('',(0.,-1.,0.));
#1640=VECTOR('',#1630,1.);
#1650=LINE('',#1620,#1640);
#1660=EDGE_CURVE('',#1430,#1590,#1650,.T.);
#1670=ORIENTED_EDGE('',*,*,#1660,.T.);
#1680=EDGE_LOOP('',(#1670,#1610,#1530,#1450));
#1690=FACE_OUTER_BOUND('',#1680,.T.);
#1700=ADVANCED_FACE('',(#1050,#1200,#1350,#1690),#900,.T.);
#1710=CARTESIAN_POINT('',(20.,20.,12.));
#1720=DIRECTION('',(0.,0.,1.));
#1730=DIRECTION('',(1.,0.,0.));
#1740=AXIS2_PLACEMENT_3D('',#1710,#1720,#1730);
#1750=PLANE('',#1740);
#1760=CARTESIAN_POINT('',(20.,20.,12.));
#1770=DIRECTION('',(0.,0.,1.));
#1780=DIRECTION('',(1.,0.,0.));
#1790=AXIS2_PLACEMENT_3D('',#1760,#1770,#1780);
#1800=CIRCLE('',#1790,8.);
#1810=CARTESIAN_POINT('',(28.,20.,12.));
#1820=VERTEX_POINT('',#1810);
#1830=CARTESIAN_POINT('',(12.,20.,12.));
#1840=VERTEX_POINT('',#1830);
#1850=EDGE_CURVE('',#1820,#1840,#1800,.T.);
#1860=ORIENTED_EDGE('',*,*,#1850,.F.);
#1870=EDGE_CURVE('',#1840,#1820,#1800,.T.);
#1880=ORIENTED_EDGE('',*,*,#1870,.F.);
#1890=EDGE_LOOP('',(#1880,#1860));
#1900=FACE_BOUND('',#1890,.T.);
#1910=CARTESIAN_POINT('',(20.,20.,12.));
#1920=DIRECTION('',(0.,0.,1.));
#1930=DIRECTION('',(1.,0.,0.));
#1940=AXIS2_PLACEMENT_3D('',#1910,#1920,#1930);
#1950=CIRCLE('',#1940,11.);
#1960=CARTESIAN_POINT('',(31.,20.,12.));
#1970=VERTEX_POINT('',#1960);
#1980=CARTESIAN_POINT('',(9.,20.,12.));
#1990=VERTEX_POINT('',#1980);
#2000=EDGE_CURVE('',#1970,#1990,#1950,.T.);
#2010=ORIENTED_EDGE('',*,*,#2000,.T.);
#2020=EDGE_CURVE('',#1990,#1970,#1950,.T.);
#2030=ORIENTED_EDGE('',*,*,#2020,.T.);
#2040=EDGE_LOOP('',(#2030,#2010));
#2050=FACE_OUTER_BOUND('',#2040,.T.);
#2060=ADVANCED_FACE('',(#1900,#2050),#1750,.T.);
#2070=CARTESIAN_POINT('',(20.,20.,4.));
#2080=DIRECTION('',(0.,0.,1.));
#2090=DIRECTION('',(1.,0.,0.));
#2100=AXIS2_PLACEMENT_3D('',#2070,#2080,#2090);
#2110=CYLINDRICAL_SURFACE('',#2100,11.);
#2120=CARTESIAN_POINT('',(31.,20.,4.));
#2130=DIRECTION('',(0.,0.,1.));
#2140=VECTOR('',#2130,1.);
#2150=LINE('',#2120,#2140);
#2160=EDGE_CURVE('',#970,#1970,#2150,.T.);
#2170=ORIENTED_EDGE('',*,*,#2160,.T.);
#2180=ORIENTED_EDGE('',*,*,#1020,.T.);
#2190=CARTESIAN_POINT('',(9.,20.,4.));
#2200=DIRECTION('',(0.,0.,1.));
#2210=VECTOR('',#2200,1.);
#2220=LINE('',#2190,#2210);
#2230=EDGE_CURVE('',#990,#1990,#2220,.T.);
#2240=ORIENTED_EDGE('',*,*,#2230,.F.);
#2250=ORIENTED_EDGE('',*,*,#2020,.F.);
#2260=EDGE_LOOP('',(#2250,#2240,#2180,#2170));
#2270=FACE_OUTER_BOUND('',#2260,.T.);
#2280=ADVANCED_FACE('',(#2270),#2110,.T.);
#2290=CARTESIAN_POINT('',(35.,5.,330.));
#2300=DIRECTION('',(0.,0.,-1.));
#2310=DIRECTION('',(1.,0.,0.));
#2320=AXIS2_PLACEMENT_3D('',#2290,#2300,#2310);
#2330=CYLINDRICAL_SURFACE('',#2320,3.3);
#2340=CARTESIAN_POINT('',(38.3,5.,330.));
#2350=DIRECTION('',(0.,0.,-1.));
#2360=VECTOR('',#2350,1.);
#2370=LINE('',#2340,#2360);
#2380=EDGE_CURVE('',#1270,#120,#2370,.T.);
#2390=ORIENTED_EDGE('',*,*,#2380,.F.);
#2400=ORIENTED_EDGE('',*,*,#170,.T.);
#2410=CARTESIAN_POINT('',(31.7,5.,330.));
#2420=DIRECTION('',(0.,0.,-1.));
#2430=VECTOR('',#2420,1.);
#2440=LINE('',#2410,#2430);
#2450=EDGE_CURVE('',#1290,#140,#2440,.T.);
#2460=ORIENTED_EDGE('',*,*,#2450,.T.);
#2470=ORIENTED_EDGE('',*,*,#1320,.F.);
#2480=EDGE_LOOP('',(#2470,#2460,#2400,#2390));
#2490=FACE_OUTER_BOUND('',#2480,.T.);
#2500=ADVANCED_FACE('',(#2490),#2330,.F.);
#2510=CARTESIAN_POINT('',(5.,35.,330.));
#2520=DIRECTION('',(0.,0.,-1.));
#2530=DIRECTION('',(1.,0.,0.));
#2540=AXIS2_PLACEMENT_3D('',#2510,#2520,#2530);
#2550=CYLINDRICAL_SURFACE('',#2540,3.3);
#2560=CARTESIAN_POINT('',(8.3,35.,330.));
#2570=DIRECTION('',(0.,0.,-1.));
#2580=VECTOR('',#2570,1.);
#2590=LINE('',#2560,#2580);
#2600=EDGE_CURVE('',#1120,#420,#2590,.T.);
#2610=ORIENTED_EDGE('',*,*,#2600,.F.);
#2620=ORIENTED_EDGE('',*,*,#470,.T.);
#2630=CARTESIAN_POINT('',(1.7,35.,330.));
#2640=DIRECTION('',(0.,0.,-1.));
#2650=VECTOR('',#2640,1.);
#2660=LINE('',#2630,#2650);
#2670=EDGE_CURVE('',#1140,#440,#2660,.T.);
#2680=ORIENTED_EDGE('',*,*,#2670,.T.);
#2690=ORIENTED_EDGE('',*,*,#1170,.F.);
#2700=EDGE_LOOP('',(#2690,#2680,#2620,#2610));
#2710=FACE_OUTER_BOUND('',#2700,.T.);
#2720=ADVANCED_FACE('',(#2710),#2550,.F.);
#2730=CARTESIAN_POINT('',(20.,20.,12.));
#2740=DIRECTION('',(0.,0.,1.));
#2750=DIRECTION('',(1.,0.,0.));
#2760=AXIS2_PLACEMENT_3D('',#2730,#2740,#2750);
#2770=CYLINDRICAL_SURFACE('',#2760,7.);
#2780=CARTESIAN_POINT('',(13.,20.,12.));
#2790=DIRECTION('',(0.,0.,1.));
#2800=VECTOR('',#2790,1.);
#2810=LINE('',#2780,#2800);
#2820=CARTESIAN_POINT('',(13.,20.,0.577349999999999));
#2830=VERTEX_POINT('',#2820);
#2840=CARTESIAN_POINT('',(13.,20.,11.4226497308104));
#2850=VERTEX_POINT('',#2840);
#2860=EDGE_CURVE('',#2830,#2850,#2810,.T.);
#2870=ORIENTED_EDGE('',*,*,#2860,.T.);
#2880=CARTESIAN_POINT('',(20.,20.,0.577349999999999));
#2890=DIRECTION('',(0.,0.,1.));
#2900=DIRECTION('',(1.,0.,0.));
#2910=AXIS2_PLACEMENT_3D('',#2880,#2890,#2900);
#2920=CIRCLE('',#2910,7.);
#2930=CARTESIAN_POINT('',(27.,20.,0.577349999999999));
#2940=VERTEX_POINT('',#2930);
#2950=EDGE_CURVE('',#2830,#2940,#2920,.T.);
#2960=ORIENTED_EDGE('',*,*,#2950,.F.);
#2970=CARTESIAN_POINT('',(27.,20.,12.));
#2980=DIRECTION('',(0.,0.,1.));
#2990=VECTOR('',#2980,1.);
#3000=LINE('',#2970,#2990);
#3010=CARTESIAN_POINT('',(27.,20.,11.4226497308104));
#3020=VERTEX_POINT('',#3010);
#3030=EDGE_CURVE('',#2940,#3020,#3000,.T.);
#3040=ORIENTED_EDGE('',*,*,#3030,.F.);
#3050=CARTESIAN_POINT('',(20.,20.,11.4226497308104));
#3060=DIRECTION('',(0.,0.,1.));
#3070=DIRECTION('',(1.,0.,0.));
#3080=AXIS2_PLACEMENT_3D('',#3050,#3060,#3070);
#3090=CIRCLE('',#3080,7.);
#3100=EDGE_CURVE('',#2850,#3020,#3090,.T.);
#3110=ORIENTED_EDGE('',*,*,#3100,.T.);
#3120=EDGE_LOOP('',(#3110,#3040,#2960,#2870));
#3130=FACE_OUTER_BOUND('',#3120,.T.);
#3140=ADVANCED_FACE('M16x2_1655269',(#3130),#2770,.F.);
#3150=COLOUR_RGB('',1.,0.,0.);
#3160=FILL_AREA_STYLE_COLOUR('',#3150);
#3170=FILL_AREA_STYLE('',(#3160));
#3180=SURFACE_STYLE_FILL_AREA(#3170);
#3190=SURFACE_SIDE_STYLE('',(#3180));
#3200=SURFACE_STYLE_USAGE(.BOTH.,#3190);
#3210=PRESENTATION_STYLE_ASSIGNMENT((#3200));
#3220=CARTESIAN_POINT('',(20.,20.,11.4226497308104));
#3230=DIRECTION('',(0.,0.,1.));
#3240=DIRECTION('',(1.,0.,0.));
#3250=AXIS2_PLACEMENT_3D('',#3220,#3230,#3240);
#3260=CONICAL_SURFACE('',#3250,7.,1.0471975511966);
#3270=CARTESIAN_POINT('',(27.,20.,11.4226497308104));
#3280=DIRECTION('',(0.866025403784438,0.,0.5));
#3290=VECTOR('',#3280,8.08290376865476);
#3300=LINE('',#3270,#3290);
#3310=EDGE_CURVE('',#3020,#1820,#3300,.T.);
#3320=ORIENTED_EDGE('',*,*,#3310,.F.);
#3330=ORIENTED_EDGE('',*,*,#1870,.T.);
#3340=CARTESIAN_POINT('',(13.,20.,11.4226497308104));
#3350=DIRECTION('',(-0.866025403784438,0.,0.5));
#3360=VECTOR('',#3350,8.08290376865476);
#3370=LINE('',#3340,#3360);
#3380=EDGE_CURVE('',#2850,#1840,#3370,.T.);
#3390=ORIENTED_EDGE('',*,*,#3380,.T.);
#3400=ORIENTED_EDGE('',*,*,#3100,.F.);
#3410=EDGE_LOOP('',(#3400,#3390,#3330,#3320));
#3420=FACE_OUTER_BOUND('',#3410,.T.);
#3430=ADVANCED_FACE('',(#3420),#3260,.F.);
#3440=CARTESIAN_POINT('',(20.,20.,0.577349999999999));
#3450=DIRECTION('',(0.,0.,-1.));
#3460=DIRECTION('',(-1.,0.,0.));
#3470=AXIS2_PLACEMENT_3D('',#3440,#3450,#3460);
#3480=CONICAL_SURFACE('',#3470,7.,1.0471975511966);
#3490=CARTESIAN_POINT('',(13.,20.,0.577349999999999));
#3500=DIRECTION('',(-0.866025403784439,0.,-0.5));
#3510=VECTOR('',#3500,8.08290376865476);
#3520=LINE('',#3490,#3510);
#3530=EDGE_CURVE('',#2830,#290,#3520,.T.);
#3540=ORIENTED_EDGE('',*,*,#3530,.F.);
#3550=ORIENTED_EDGE('',*,*,#320,.F.);
#3560=CARTESIAN_POINT('',(27.,20.,0.577349999999999));
#3570=DIRECTION('',(0.866025403784439,0.,-0.5));
#3580=VECTOR('',#3570,8.08290376865476);
#3590=LINE('',#3560,#3580);
#3600=EDGE_CURVE('',#2940,#270,#3590,.T.);
#3610=ORIENTED_EDGE('',*,*,#3600,.T.);
#3620=ORIENTED_EDGE('',*,*,#2950,.T.);
#3630=EDGE_LOOP('',(#3620,#3610,#3550,#3540));
#3640=FACE_OUTER_BOUND('',#3630,.T.);
#3650=ADVANCED_FACE('',(#3640),#3480,.F.);
#3660=CARTESIAN_POINT('',(35.,5.,330.));
#3670=DIRECTION('',(0.,0.,-1.));
#3680=DIRECTION('',(1.,0.,0.));
#3690=AXIS2_PLACEMENT_3D('',#3660,#3670,#3680);
#3700=CYLINDRICAL_SURFACE('',#3690,3.3);
#3710=ORIENTED_EDGE('',*,*,#1300,.F.);
#3720=ORIENTED_EDGE('',*,*,#2450,.F.);
#3730=ORIENTED_EDGE('',*,*,#150,.T.);
#3740=ORIENTED_EDGE('',*,*,#2380,.T.);
#3750=EDGE_LOOP('',(#3740,#3730,#3720,#3710));
#3760=FACE_OUTER_BOUND('',#3750,.T.);
#3770=ADVANCED_FACE('',(#3760),#3700,.F.);
#3780=CARTESIAN_POINT('',(20.,20.,0.577349999999999));
#3790=DIRECTION('',(0.,0.,-1.));
#3800=DIRECTION('',(-1.,0.,0.));
#3810=AXIS2_PLACEMENT_3D('',#3780,#3790,#3800);
#3820=CONICAL_SURFACE('',#3810,7.,1.0471975511966);
#3830=EDGE_CURVE('',#2940,#2830,#2920,.T.);
#3840=ORIENTED_EDGE('',*,*,#3830,.T.);
#3850=ORIENTED_EDGE('',*,*,#3600,.F.);
#3860=ORIENTED_EDGE('',*,*,#300,.F.);
#3870=ORIENTED_EDGE('',*,*,#3530,.T.);
#3880=EDGE_LOOP('',(#3870,#3860,#3850,#3840));
#3890=FACE_OUTER_BOUND('',#3880,.T.);
#3900=ADVANCED_FACE('',(#3890),#3820,.F.);
#3910=CARTESIAN_POINT('',(20.,20.,12.));
#3920=DIRECTION('',(0.,0.,1.));
#3930=DIRECTION('',(1.,0.,0.));
#3940=AXIS2_PLACEMENT_3D('',#3910,#3920,#3930);
#3950=CYLINDRICAL_SURFACE('',#3940,7.);
#3960=ORIENTED_EDGE('',*,*,#3830,.F.);
#3970=ORIENTED_EDGE('',*,*,#2860,.F.);
#3980=EDGE_CURVE('',#3020,#2850,#3090,.T.);
#3990=ORIENTED_EDGE('',*,*,#3980,.T.);
#4000=ORIENTED_EDGE('',*,*,#3030,.T.);
#4010=EDGE_LOOP('',(#4000,#3990,#3970,#3960));
#4020=FACE_OUTER_BOUND('',#4010,.T.);
#4030=ADVANCED_FACE('',(#4020),#3950,.F.);
#4040=COLOUR_RGB('',1.,0.,0.);
#4050=FILL_AREA_STYLE_COLOUR('',#4040);
#4060=FILL_AREA_STYLE('',(#4050));
#4070=SURFACE_STYLE_FILL_AREA(#4060);
#4080=SURFACE_SIDE_STYLE('',(#4070));
#4090=SURFACE_STYLE_USAGE(.BOTH.,#4080);
#4100=PRESENTATION_STYLE_ASSIGNMENT((#4090));
#4110=CARTESIAN_POINT('',(20.,20.,11.4226497308104));
#4120=DIRECTION('',(0.,0.,1.));
#4130=DIRECTION('',(1.,0.,0.));
#4140=AXIS2_PLACEMENT_3D('',#4110,#4120,#4130);
#4150=CONICAL_SURFACE('',#4140,7.,1.0471975511966);
#4160=ORIENTED_EDGE('',*,*,#3980,.F.);
#4170=ORIENTED_EDGE('',*,*,#3380,.F.);
#4180=ORIENTED_EDGE('',*,*,#1850,.T.);
#4190=ORIENTED_EDGE('',*,*,#3310,.T.);
#4200=EDGE_LOOP('',(#4190,#4180,#4170,#4160));
#4210=FACE_OUTER_BOUND('',#4200,.T.);
#4220=ADVANCED_FACE('',(#4210),#4150,.F.);
#4230=CARTESIAN_POINT('',(5.,35.,330.));
#4240=DIRECTION('',(0.,0.,-1.));
#4250=DIRECTION('',(1.,0.,0.));
#4260=AXIS2_PLACEMENT_3D('',#4230,#4240,#4250);
#4270=CYLINDRICAL_SURFACE('',#4260,3.3);
#4280=ORIENTED_EDGE('',*,*,#1150,.F.);
#4290=ORIENTED_EDGE('',*,*,#2670,.F.);
#4300=ORIENTED_EDGE('',*,*,#450,.T.);
#4310=ORIENTED_EDGE('',*,*,#2600,.T.);
#4320=EDGE_LOOP('',(#4310,#4300,#4290,#4280));
#4330=FACE_OUTER_BOUND('',#4320,.T.);
#4340=ADVANCED_FACE('',(#4330),#4270,.F.);
#4350=CARTESIAN_POINT('',(20.,20.,4.));
#4360=DIRECTION('',(0.,0.,1.));
#4370=DIRECTION('',(1.,0.,0.));
#4380=AXIS2_PLACEMENT_3D('',#4350,#4360,#4370);
#4390=CYLINDRICAL_SURFACE('',#4380,11.);
#4400=ORIENTED_EDGE('',*,*,#2000,.F.);
#4410=ORIENTED_EDGE('',*,*,#2230,.T.);
#4420=ORIENTED_EDGE('',*,*,#1000,.T.);
#4430=ORIENTED_EDGE('',*,*,#2160,.F.);
#4440=EDGE_LOOP('',(#4430,#4420,#4410,#4400));
#4450=FACE_OUTER_BOUND('',#4440,.T.);
#4460=ADVANCED_FACE('',(#4450),#4390,.T.);
#4470=CARTESIAN_POINT('',(0.,0.,0.));
#4480=DIRECTION('',(-1.,0.,0.));
#4490=DIRECTION('',(0.,1.,0.));
#4500=AXIS2_PLACEMENT_3D('',#4470,#4480,#4490);
#4510=PLANE('',#4500);
#4520=ORIENTED_EDGE('',*,*,#590,.T.);
#4530=CARTESIAN_POINT('',(0.,40.,0.));
#4540=DIRECTION('',(0.,0.,-1.));
#4550=VECTOR('',#4540,1.);
#4560=LINE('',#4530,#4550);
#4570=EDGE_CURVE('',#1430,#560,#4560,.T.);
#4580=ORIENTED_EDGE('',*,*,#4570,.T.);
#4590=ORIENTED_EDGE('',*,*,#1660,.F.);
#4600=CARTESIAN_POINT('',(0.,0.,0.));
#4610=DIRECTION('',(0.,0.,1.));
#4620=VECTOR('',#4610,1.);
#4630=LINE('',#4600,#4620);
#4640=EDGE_CURVE('',#580,#1590,#4630,.T.);
#4650=ORIENTED_EDGE('',*,*,#4640,.T.);
#4660=EDGE_LOOP('',(#4650,#4590,#4580,#4520));
#4670=FACE_OUTER_BOUND('',#4660,.T.);
#4680=ADVANCED_FACE('',(#4670),#4510,.T.);
#4690=CARTESIAN_POINT('',(40.,0.,0.));
#4700=DIRECTION('',(-0.,-1.,-0.));
#4710=DIRECTION('',(-1.,0.,0.));
#4720=AXIS2_PLACEMENT_3D('',#4690,#4700,#4710);
#4730=PLANE('',#4720);
#4740=ORIENTED_EDGE('',*,*,#670,.T.);
#4750=ORIENTED_EDGE('',*,*,#4640,.F.);
#4760=ORIENTED_EDGE('',*,*,#1600,.F.);
#4770=CARTESIAN_POINT('',(40.,0.,0.));
#4780=DIRECTION('',(0.,0.,1.));
#4790=VECTOR('',#4780,1.);
#4800=LINE('',#4770,#4790);
#4810=EDGE_CURVE('',#660,#1510,#4800,.T.);
#4820=ORIENTED_EDGE('',*,*,#4810,.T.);
#4830=EDGE_LOOP('',(#4820,#4760,#4750,#4740));
#4840=FACE_OUTER_BOUND('',#4830,.T.);
#4850=ADVANCED_FACE('',(#4840),#4730,.T.);
#4860=CARTESIAN_POINT('',(40.,40.,0.));
#4870=DIRECTION('',(1.,0.,0.));
#4880=DIRECTION('',(0.,-1.,0.));
#4890=AXIS2_PLACEMENT_3D('',#4860,#4870,#4880);
#4900=PLANE('',#4890);
#4910=ORIENTED_EDGE('',*,*,#750,.T.);
#4920=ORIENTED_EDGE('',*,*,#4810,.F.);
#4930=ORIENTED_EDGE('',*,*,#1520,.F.);
#4940=CARTESIAN_POINT('',(40.,40.,0.));
#4950=DIRECTION('',(0.,0.,1.));
#4960=VECTOR('',#4950,1.);
#4970=LINE('',#4940,#4960);
#4980=EDGE_CURVE('',#740,#1410,#4970,.T.);
#4990=ORIENTED_EDGE('',*,*,#4980,.T.);
#5000=EDGE_LOOP('',(#4990,#4930,#4920,#4910));
#5010=FACE_OUTER_BOUND('',#5000,.T.);
#5020=ADVANCED_FACE('',(#5010),#4900,.T.);
#5030=CARTESIAN_POINT('',(0.,40.,0.));
#5040=DIRECTION('',(-0.,1.,0.));
#5050=DIRECTION('',(1.,0.,0.));
#5060=AXIS2_PLACEMENT_3D('',#5030,#5040,#5050);
#5070=PLANE('',#5060);
#5080=ORIENTED_EDGE('',*,*,#4980,.F.);
#5090=ORIENTED_EDGE('',*,*,#1440,.F.);
#5100=ORIENTED_EDGE('',*,*,#4570,.F.);
#5110=ORIENTED_EDGE('',*,*,#810,.T.);
#5120=EDGE_LOOP('',(#5110,#5100,#5090,#5080));
#5130=FACE_OUTER_BOUND('',#5120,.T.);
#5140=ADVANCED_FACE('',(#5130),#5070,.T.);
#5150=CLOSED_SHELL('',(#4680,#4850,#5020,#5140,#1700,#2060,#2280,#2500,
#2720,#3140,#3430,#3650,#3770,#3900,#4030,#4220,#4340,#4460,#850));
#5160=MANIFOLD_SOLID_BREP('',#5150);
#5170=CARTESIAN_POINT('',(0.,0.,0.));
#5180=DIRECTION('',(0.,0.,1.));
#5190=DIRECTION('',(1.,0.,0.));
#5200=AXIS2_PLACEMENT_3D('',#5170,#5180,#5190);
#5210=APPLICATION_CONTEXT(' ');
#5220=APPLICATION_PROTOCOL_DEFINITION(' ','automotive_design',1998,#5210
);
#5230=PRODUCT_CONTEXT('',#5210,'mechanical');
#5240=PRODUCT_DEFINITION_CONTEXT('part definition',#5210,'design');
#5250=PRODUCT('Flansch-MMS-44_40x40x12-M16_44.0249_PX171646',
'Flansch-MMS-44_40x40x12-M16_44.0249_PX171646','',(#5230));
#5260=PRODUCT_RELATED_PRODUCT_CATEGORY('part',' ',(#5250));
#5270=PRODUCT_DEFINITION_FORMATION_WITH_SPECIFIED_SOURCE('','',#5250,
.BOUGHT.);
#5280=PRODUCT_DEFINITION('',' ',#5270,#5240);
#5290=PRODUCT_DEFINITION_SHAPE('','',#5280);
#5300=DIMENSIONAL_EXPONENTS(1.,0.,0.,0.,0.,0.,0.);
#5310=DIMENSIONAL_EXPONENTS(0.,0.,0.,0.,0.,0.,0.);
#5320=DIMENSIONAL_EXPONENTS(0.,0.,0.,0.,0.,0.,0.);
#5330=(LENGTH_UNIT() NAMED_UNIT(*) SI_UNIT(.MILLI.,.METRE.));
#5340=(NAMED_UNIT(*) PLANE_ANGLE_UNIT() SI_UNIT($,.RADIAN.));
#5350=(NAMED_UNIT(*) SI_UNIT($,.STERADIAN.) SOLID_ANGLE_UNIT());
#5360=(GEOMETRIC_REPRESENTATION_CONTEXT(3) 
GLOBAL_UNCERTAINTY_ASSIGNED_CONTEXT((#5370)) 
GLOBAL_UNIT_ASSIGNED_CONTEXT((#5330,#5340,#5350)) REPRESENTATION_CONTEXT
('',''));
#5370=UNCERTAINTY_MEASURE_WITH_UNIT(LENGTH_MEASURE(1.E-6),#5330,
'distance_accuracy_value','maximum gap value');
#5380=ADVANCED_BREP_SHAPE_REPRESENTATION('',(#5200,#5160),#5360);
#5390=SHAPE_DEFINITION_REPRESENTATION(#5290,#5380);
#5400=COLOUR_RGB('',0.690196096897125,0.886274576187134,1.);
#5410=FILL_AREA_STYLE_COLOUR('',#5400);
#5420=FILL_AREA_STYLE('',(#5410));
#5430=SURFACE_STYLE_FILL_AREA(#5420);
#5440=SURFACE_SIDE_STYLE('',(#5430));
#5450=SURFACE_STYLE_USAGE(.BOTH.,#5440);
#5460=PRESENTATION_STYLE_ASSIGNMENT((#5450));
#5470=STYLED_ITEM('',(#5460),#5160);
#5480=OVER_RIDING_STYLED_ITEM('',(#3210),#3140,#5470);
#5490=OVER_RIDING_STYLED_ITEM('',(#4100),#4030,#5470);
#5500=DRAUGHTING_MODEL('',(#5470,#5480,#5490),#5360);
ENDSEC;
END-ISO-10303-21;
