ISO-10303-21;
HEADER;
FILE_DESCRIPTION(('Creo Elements/Direct Modeling STEP Export'),'2;1');
FILE_NAME(
'//KR-CAD2/PhoenixTemp/karl.letzgus/Konvertierung/44.0305.2_Abdeck-Kappe
-MMS-44-AL-Druckguss_40x40x5mm.stp','2022-03-21T 8:55:31',(''),(''),
'PTC Creo Elements/Direct Modeling STEP processor for AP214 (Solid Model
)',
'PTC Creo Elements/Direct Modeling 19.0C  15-Aug-2015 (C) Parametric Tec
hnology GmbH','');
FILE_SCHEMA(('AUTOMOTIVE_DESIGN { 1 0 10303 214 1 1 1 1 }'));
ENDSEC;
DATA;
#10=CARTESIAN_POINT('',(0.,0.,0.));
#20=DIRECTION('',(0.,0.,1.));
#30=DIRECTION('',(1.,0.,0.));
#40=AXIS2_PLACEMENT_3D('',#10,#20,#30);
#50=PLANE('',#40);
#60=CARTESIAN_POINT('',(1.5,0.,0.));
#70=DIRECTION('',(0.,-1.,0.));
#80=VECTOR('',#70,1.);
#90=LINE('',#60,#80);
#100=CARTESIAN_POINT('',(1.5,38.5,0.));
#110=VERTEX_POINT('',#100);
#120=CARTESIAN_POINT('',(1.5,1.5,0.));
#130=VERTEX_POINT('',#120);
#140=EDGE_CURVE('',#110,#130,#90,.T.);
#150=ORIENTED_EDGE('',*,*,#140,.F.);
#160=CARTESIAN_POINT('',(0.,1.5,0.));
#170=DIRECTION('',(1.,0.,0.));
#180=VECTOR('',#170,1.);
#190=LINE('',#160,#180);
#200=CARTESIAN_POINT('',(38.5,1.5,0.));
#210=VERTEX_POINT('',#200);
#220=EDGE_CURVE('',#130,#210,#190,.T.);
#230=ORIENTED_EDGE('',*,*,#220,.F.);
#240=CARTESIAN_POINT('',(38.5,0.,0.));
#250=DIRECTION('',(0.,1.,0.));
#260=VECTOR('',#250,1.);
#270=LINE('',#240,#260);
#280=CARTESIAN_POINT('',(38.5,38.5,0.));
#290=VERTEX_POINT('',#280);
#300=EDGE_CURVE('',#210,#290,#270,.T.);
#310=ORIENTED_EDGE('',*,*,#300,.F.);
#320=CARTESIAN_POINT('',(0.,38.5,0.));
#330=DIRECTION('',(-1.,0.,0.));
#340=VECTOR('',#330,1.);
#350=LINE('',#320,#340);
#360=EDGE_CURVE('',#290,#110,#350,.T.);
#370=ORIENTED_EDGE('',*,*,#360,.F.);
#380=EDGE_LOOP('',(#370,#310,#230,#150));
#390=FACE_OUTER_BOUND('',#380,.T.);
#400=CARTESIAN_POINT('',(19.9999999999999,20.,0.));
#410=DIRECTION('',(0.,0.,1.));
#420=DIRECTION('',(1.,0.,0.));
#430=AXIS2_PLACEMENT_3D('',#400,#410,#420);
#440=CIRCLE('',#430,5.5);
#450=CARTESIAN_POINT('',(25.4999999999999,20.,0.));
#460=VERTEX_POINT('',#450);
#470=CARTESIAN_POINT('',(14.4999999999999,20.,0.));
#480=VERTEX_POINT('',#470);
#490=EDGE_CURVE('',#460,#480,#440,.T.);
#500=ORIENTED_EDGE('',*,*,#490,.T.);
#510=EDGE_CURVE('',#480,#460,#440,.T.);
#520=ORIENTED_EDGE('',*,*,#510,.T.);
#530=EDGE_LOOP('',(#520,#500));
#540=FACE_BOUND('',#530,.T.);
#550=ADVANCED_FACE('',(#390,#540),#50,.F.);
#560=CARTESIAN_POINT('',(38.5,0.,1.5));
#570=DIRECTION('',(0.,1.,0.));
#580=DIRECTION('',(1.,0.,0.));
#590=AXIS2_PLACEMENT_3D('',#560,#570,#580);
#600=CYLINDRICAL_SURFACE('',#590,1.5);
#610=CARTESIAN_POINT('',(38.5,1.5,1.5));
#620=DIRECTION('',(0.707106781186548,0.707106781186548,0.));
#630=DIRECTION('',(-0.707106781186548,0.707106781186548,0.));
#640=AXIS2_PLACEMENT_3D('',#610,#620,#630);
#650=ELLIPSE('',#640,2.12132034355964,1.5);
#660=CARTESIAN_POINT('',(39.5606601717798,0.439339828220179,
0.439339828220179));
#670=VERTEX_POINT('',#660);
#680=EDGE_CURVE('',#670,#210,#650,.T.);
#690=ORIENTED_EDGE('',*,*,#680,.T.);
#700=CARTESIAN_POINT('',(38.5,1.5,1.5));
#710=DIRECTION('',(0.,0.707106781186548,-0.707106781186548));
#720=DIRECTION('',(0.,0.707106781186548,0.707106781186548));
#730=AXIS2_PLACEMENT_3D('',#700,#710,#720);
#740=ELLIPSE('',#730,2.12132034355964,1.5);
#750=CARTESIAN_POINT('',(40.,1.5,1.5));
#760=VERTEX_POINT('',#750);
#770=EDGE_CURVE('',#760,#670,#740,.T.);
#780=ORIENTED_EDGE('',*,*,#770,.T.);
#790=CARTESIAN_POINT('',(40.,0.,1.5));
#800=DIRECTION('',(0.,1.,0.));
#810=VECTOR('',#800,1.);
#820=LINE('',#790,#810);
#830=CARTESIAN_POINT('',(40.,38.5,1.5));
#840=VERTEX_POINT('',#830);
#850=EDGE_CURVE('',#760,#840,#820,.T.);
#860=ORIENTED_EDGE('',*,*,#850,.F.);
#870=CARTESIAN_POINT('',(38.5,38.5,1.5));
#880=DIRECTION('',(0.,0.707106781186548,0.707106781186548));
#890=DIRECTION('',(0.,-0.707106781186548,0.707106781186548));
#900=AXIS2_PLACEMENT_3D('',#870,#880,#890);
#910=ELLIPSE('',#900,2.12132034355964,1.5);
#920=CARTESIAN_POINT('',(39.5606601717798,39.5606601717798,
0.439339828220179));
#930=VERTEX_POINT('',#920);
#940=EDGE_CURVE('',#840,#930,#910,.T.);
#950=ORIENTED_EDGE('',*,*,#940,.F.);
#960=CARTESIAN_POINT('',(38.5,38.5,1.5));
#970=DIRECTION('',(-0.707106781186548,0.707106781186548,0.));
#980=DIRECTION('',(-0.707106781186548,-0.707106781186548,0.));
#990=AXIS2_PLACEMENT_3D('',#960,#970,#980);
#1000=ELLIPSE('',#990,2.12132034355964,1.5);
#1010=EDGE_CURVE('',#930,#290,#1000,.T.);
#1020=ORIENTED_EDGE('',*,*,#1010,.F.);
#1030=ORIENTED_EDGE('',*,*,#300,.T.);
#1040=EDGE_LOOP('',(#1030,#1020,#950,#860,#780,#690));
#1050=FACE_OUTER_BOUND('',#1040,.T.);
#1060=ADVANCED_FACE('',(#1050),#600,.T.);
#1070=CARTESIAN_POINT('',(1.5,0.,1.5));
#1080=DIRECTION('',(0.,-1.,0.));
#1090=DIRECTION('',(-1.,0.,0.));
#1100=AXIS2_PLACEMENT_3D('',#1070,#1080,#1090);
#1110=CYLINDRICAL_SURFACE('',#1100,1.5);
#1120=CARTESIAN_POINT('',(1.5,1.5,1.5));
#1130=DIRECTION('',(0.,-0.707106781186548,0.707106781186548));
#1140=DIRECTION('',(0.,0.707106781186548,0.707106781186548));
#1150=AXIS2_PLACEMENT_3D('',#1120,#1130,#1140);
#1160=ELLIPSE('',#1150,2.12132034355964,1.5);
#1170=CARTESIAN_POINT('',(0.,1.5,1.5));
#1180=VERTEX_POINT('',#1170);
#1190=CARTESIAN_POINT('',(0.439339828220179,0.439339828220179,
0.439339828220179));
#1200=VERTEX_POINT('',#1190);
#1210=EDGE_CURVE('',#1180,#1200,#1160,.T.);
#1220=ORIENTED_EDGE('',*,*,#1210,.F.);
#1230=CARTESIAN_POINT('',(1.5,1.5,1.5));
#1240=DIRECTION('',(0.707106781186548,-0.707106781186548,0.));
#1250=DIRECTION('',(0.707106781186548,0.707106781186548,0.));
#1260=AXIS2_PLACEMENT_3D('',#1230,#1240,#1250);
#1270=ELLIPSE('',#1260,2.12132034355964,1.5);
#1280=EDGE_CURVE('',#1200,#130,#1270,.T.);
#1290=ORIENTED_EDGE('',*,*,#1280,.F.);
#1300=ORIENTED_EDGE('',*,*,#140,.T.);
#1310=CARTESIAN_POINT('',(1.5,38.5,1.5));
#1320=DIRECTION('',(-0.707106781186548,-0.707106781186548,0.));
#1330=DIRECTION('',(-0.707106781186548,0.707106781186548,0.));
#1340=AXIS2_PLACEMENT_3D('',#1310,#1320,#1330);
#1350=ELLIPSE('',#1340,2.12132034355964,1.5);
#1360=CARTESIAN_POINT('',(0.439339828220179,39.5606601717798,
0.439339828220179));
#1370=VERTEX_POINT('',#1360);
#1380=EDGE_CURVE('',#1370,#110,#1350,.T.);
#1390=ORIENTED_EDGE('',*,*,#1380,.T.);
#1400=CARTESIAN_POINT('',(1.5,38.5,1.5));
#1410=DIRECTION('',(0.,-0.707106781186548,-0.707106781186548));
#1420=DIRECTION('',(0.,0.707106781186548,-0.707106781186548));
#1430=AXIS2_PLACEMENT_3D('',#1400,#1410,#1420);
#1440=ELLIPSE('',#1430,2.12132034355964,1.5);
#1450=CARTESIAN_POINT('',(0.,38.5,1.5));
#1460=VERTEX_POINT('',#1450);
#1470=EDGE_CURVE('',#1460,#1370,#1440,.T.);
#1480=ORIENTED_EDGE('',*,*,#1470,.T.);
#1490=CARTESIAN_POINT('',(0.,0.,1.5));
#1500=DIRECTION('',(0.,-1.,0.));
#1510=VECTOR('',#1500,1.);
#1520=LINE('',#1490,#1510);
#1530=EDGE_CURVE('',#1460,#1180,#1520,.T.);
#1540=ORIENTED_EDGE('',*,*,#1530,.F.);
#1550=EDGE_LOOP('',(#1540,#1480,#1390,#1300,#1290,#1220));
#1560=FACE_OUTER_BOUND('',#1550,.T.);
#1570=ADVANCED_FACE('',(#1560),#1110,.T.);
#1580=CARTESIAN_POINT('',(0.,1.5,1.5));
#1590=DIRECTION('',(1.,0.,0.));
#1600=DIRECTION('',(0.,-1.,0.));
#1610=AXIS2_PLACEMENT_3D('',#1580,#1590,#1600);
#1620=CYLINDRICAL_SURFACE('',#1610,1.5);
#1630=ORIENTED_EDGE('',*,*,#1280,.T.);
#1640=CARTESIAN_POINT('',(1.5,1.5,1.5));
#1650=DIRECTION('',(-0.707106781186548,0.,0.707106781186548));
#1660=DIRECTION('',(0.707106781186548,0.,0.707106781186548));
#1670=AXIS2_PLACEMENT_3D('',#1640,#1650,#1660);
#1680=ELLIPSE('',#1670,2.12132034355964,1.5);
#1690=CARTESIAN_POINT('',(1.5,0.,1.5));
#1700=VERTEX_POINT('',#1690);
#1710=EDGE_CURVE('',#1200,#1700,#1680,.T.);
#1720=ORIENTED_EDGE('',*,*,#1710,.F.);
#1730=CARTESIAN_POINT('',(0.,0.,1.5));
#1740=DIRECTION('',(1.,0.,0.));
#1750=VECTOR('',#1740,1.);
#1760=LINE('',#1730,#1750);
#1770=CARTESIAN_POINT('',(38.5,0.,1.5));
#1780=VERTEX_POINT('',#1770);
#1790=EDGE_CURVE('',#1700,#1780,#1760,.T.);
#1800=ORIENTED_EDGE('',*,*,#1790,.F.);
#1810=CARTESIAN_POINT('',(38.5,1.5,1.5));
#1820=DIRECTION('',(0.707106781186548,0.,0.707106781186548));
#1830=DIRECTION('',(-0.707106781186548,0.,0.707106781186548));
#1840=AXIS2_PLACEMENT_3D('',#1810,#1820,#1830);
#1850=ELLIPSE('',#1840,2.12132034355964,1.5);
#1860=EDGE_CURVE('',#1780,#670,#1850,.T.);
#1870=ORIENTED_EDGE('',*,*,#1860,.F.);
#1880=ORIENTED_EDGE('',*,*,#680,.F.);
#1890=ORIENTED_EDGE('',*,*,#220,.T.);
#1900=EDGE_LOOP('',(#1890,#1880,#1870,#1800,#1720,#1630));
#1910=FACE_OUTER_BOUND('',#1900,.T.);
#1920=ADVANCED_FACE('',(#1910),#1620,.T.);
#1930=CARTESIAN_POINT('',(0.,38.5,1.5));
#1940=DIRECTION('',(-1.,0.,0.));
#1950=DIRECTION('',(0.,1.,0.));
#1960=AXIS2_PLACEMENT_3D('',#1930,#1940,#1950);
#1970=CYLINDRICAL_SURFACE('',#1960,1.5);
#1980=ORIENTED_EDGE('',*,*,#1010,.T.);
#1990=CARTESIAN_POINT('',(38.5,38.5,1.5));
#2000=DIRECTION('',(0.707106781186548,0.,0.707106781186548));
#2010=DIRECTION('',(-0.707106781186548,0.,0.707106781186548));
#2020=AXIS2_PLACEMENT_3D('',#1990,#2000,#2010);
#2030=ELLIPSE('',#2020,2.12132034355964,1.5);
#2040=CARTESIAN_POINT('',(38.5,40.,1.5));
#2050=VERTEX_POINT('',#2040);
#2060=EDGE_CURVE('',#930,#2050,#2030,.T.);
#2070=ORIENTED_EDGE('',*,*,#2060,.F.);
#2080=CARTESIAN_POINT('',(0.,40.,1.5));
#2090=DIRECTION('',(-1.,0.,0.));
#2100=VECTOR('',#2090,1.);
#2110=LINE('',#2080,#2100);
#2120=CARTESIAN_POINT('',(1.5,40.,1.5));
#2130=VERTEX_POINT('',#2120);
#2140=EDGE_CURVE('',#2050,#2130,#2110,.T.);
#2150=ORIENTED_EDGE('',*,*,#2140,.F.);
#2160=CARTESIAN_POINT('',(1.5,38.5,1.5));
#2170=DIRECTION('',(0.707106781186548,0.,-0.707106781186548));
#2180=DIRECTION('',(-0.707106781186548,0.,-0.707106781186548));
#2190=AXIS2_PLACEMENT_3D('',#2160,#2170,#2180);
#2200=ELLIPSE('',#2190,2.12132034355964,1.5);
#2210=EDGE_CURVE('',#1370,#2130,#2200,.T.);
#2220=ORIENTED_EDGE('',*,*,#2210,.T.);
#2230=ORIENTED_EDGE('',*,*,#1380,.F.);
#2240=ORIENTED_EDGE('',*,*,#360,.T.);
#2250=EDGE_LOOP('',(#2240,#2230,#2220,#2150,#2070,#1980));
#2260=FACE_OUTER_BOUND('',#2250,.T.);
#2270=ADVANCED_FACE('',(#2260),#1970,.T.);
#2280=CARTESIAN_POINT('',(0.,0.,5.));
#2290=DIRECTION('',(0.,0.,1.));
#2300=DIRECTION('',(1.,0.,0.));
#2310=AXIS2_PLACEMENT_3D('',#2280,#2290,#2300);
#2320=PLANE('',#2310);
#2330=CARTESIAN_POINT('',(35.,35.,5.));
#2340=DIRECTION('',(0.,0.,1.));
#2350=DIRECTION('',(-1.,0.,0.));
#2360=AXIS2_PLACEMENT_3D('',#2330,#2340,#2350);
#2370=CIRCLE('',#2360,2.5);
#2380=CARTESIAN_POINT('',(32.5,35.,5.));
#2390=VERTEX_POINT('',#2380);
#2400=CARTESIAN_POINT('',(37.5,35.,5.));
#2410=VERTEX_POINT('',#2400);
#2420=EDGE_CURVE('',#2390,#2410,#2370,.T.);
#2430=ORIENTED_EDGE('',*,*,#2420,.F.);
#2440=EDGE_CURVE('',#2410,#2390,#2370,.T.);
#2450=ORIENTED_EDGE('',*,*,#2440,.F.);
#2460=EDGE_LOOP('',(#2450,#2430));
#2470=FACE_BOUND('',#2460,.T.);
#2480=CARTESIAN_POINT('',(5.,5.,5.));
#2490=DIRECTION('',(0.,0.,1.));
#2500=DIRECTION('',(-1.,0.,0.));
#2510=AXIS2_PLACEMENT_3D('',#2480,#2490,#2500);
#2520=CIRCLE('',#2510,2.5);
#2530=CARTESIAN_POINT('',(2.5,5.,5.));
#2540=VERTEX_POINT('',#2530);
#2550=CARTESIAN_POINT('',(7.5,5.,5.));
#2560=VERTEX_POINT('',#2550);
#2570=EDGE_CURVE('',#2540,#2560,#2520,.T.);
#2580=ORIENTED_EDGE('',*,*,#2570,.F.);
#2590=EDGE_CURVE('',#2560,#2540,#2520,.T.);
#2600=ORIENTED_EDGE('',*,*,#2590,.F.);
#2610=EDGE_LOOP('',(#2600,#2580));
#2620=FACE_BOUND('',#2610,.T.);
#2630=CARTESIAN_POINT('',(1.5,38.5,5.));
#2640=DIRECTION('',(0.,0.,-1.));
#2650=DIRECTION('',(-1.,0.,0.));
#2660=AXIS2_PLACEMENT_3D('',#2630,#2640,#2650);
#2670=CIRCLE('',#2660,1.5);
#2680=CARTESIAN_POINT('',(0.,38.5,5.));
#2690=VERTEX_POINT('',#2680);
#2700=CARTESIAN_POINT('',(1.5,40.,5.));
#2710=VERTEX_POINT('',#2700);
#2720=EDGE_CURVE('',#2690,#2710,#2670,.T.);
#2730=ORIENTED_EDGE('',*,*,#2720,.F.);
#2740=CARTESIAN_POINT('',(40.,40.,5.));
#2750=DIRECTION('',(-1.,0.,0.));
#2760=VECTOR('',#2750,1.);
#2770=LINE('',#2740,#2760);
#2780=CARTESIAN_POINT('',(38.5,40.,5.));
#2790=VERTEX_POINT('',#2780);
#2800=EDGE_CURVE('',#2790,#2710,#2770,.T.);
#2810=ORIENTED_EDGE('',*,*,#2800,.T.);
#2820=CARTESIAN_POINT('',(38.5,38.5,5.));
#2830=DIRECTION('',(0.,0.,1.));
#2840=DIRECTION('',(1.,0.,0.));
#2850=AXIS2_PLACEMENT_3D('',#2820,#2830,#2840);
#2860=CIRCLE('',#2850,1.5);
#2870=CARTESIAN_POINT('',(40.,38.5,5.));
#2880=VERTEX_POINT('',#2870);
#2890=EDGE_CURVE('',#2880,#2790,#2860,.T.);
#2900=ORIENTED_EDGE('',*,*,#2890,.T.);
#2910=CARTESIAN_POINT('',(40.,0.,5.));
#2920=DIRECTION('',(0.,1.,0.));
#2930=VECTOR('',#2920,1.);
#2940=LINE('',#2910,#2930);
#2950=CARTESIAN_POINT('',(40.,1.5,5.));
#2960=VERTEX_POINT('',#2950);
#2970=EDGE_CURVE('',#2960,#2880,#2940,.T.);
#2980=ORIENTED_EDGE('',*,*,#2970,.T.);
#2990=CARTESIAN_POINT('',(38.5,1.5,5.));
#3000=DIRECTION('',(0.,0.,1.));
#3010=DIRECTION('',(1.,0.,0.));
#3020=AXIS2_PLACEMENT_3D('',#2990,#3000,#3010);
#3030=CIRCLE('',#3020,1.5);
#3040=CARTESIAN_POINT('',(38.5,0.,5.));
#3050=VERTEX_POINT('',#3040);
#3060=EDGE_CURVE('',#3050,#2960,#3030,.T.);
#3070=ORIENTED_EDGE('',*,*,#3060,.T.);
#3080=CARTESIAN_POINT('',(0.,0.,5.));
#3090=DIRECTION('',(1.,0.,0.));
#3100=VECTOR('',#3090,1.);
#3110=LINE('',#3080,#3100);
#3120=CARTESIAN_POINT('',(1.5,0.,5.));
#3130=VERTEX_POINT('',#3120);
#3140=EDGE_CURVE('',#3130,#3050,#3110,.T.);
#3150=ORIENTED_EDGE('',*,*,#3140,.T.);
#3160=CARTESIAN_POINT('',(1.5,1.5,5.));
#3170=DIRECTION('',(0.,0.,1.));
#3180=DIRECTION('',(1.,0.,0.));
#3190=AXIS2_PLACEMENT_3D('',#3160,#3170,#3180);
#3200=CIRCLE('',#3190,1.5);
#3210=CARTESIAN_POINT('',(0.,1.5,5.));
#3220=VERTEX_POINT('',#3210);
#3230=EDGE_CURVE('',#3220,#3130,#3200,.T.);
#3240=ORIENTED_EDGE('',*,*,#3230,.T.);
#3250=CARTESIAN_POINT('',(0.,40.,5.));
#3260=DIRECTION('',(0.,-1.,0.));
#3270=VECTOR('',#3260,1.);
#3280=LINE('',#3250,#3270);
#3290=EDGE_CURVE('',#2690,#3220,#3280,.T.);
#3300=ORIENTED_EDGE('',*,*,#3290,.T.);
#3310=EDGE_LOOP('',(#3300,#3240,#3150,#3070,#2980,#2900,#2810,#2730));
#3320=FACE_OUTER_BOUND('',#3310,.T.);
#3330=CARTESIAN_POINT('',(19.9999999999999,20.,5.));
#3340=DIRECTION('',(0.,0.,1.));
#3350=DIRECTION('',(1.,0.,0.));
#3360=AXIS2_PLACEMENT_3D('',#3330,#3340,#3350);
#3370=CIRCLE('',#3360,5.5);
#3380=CARTESIAN_POINT('',(25.4999999999999,20.,5.));
#3390=VERTEX_POINT('',#3380);
#3400=CARTESIAN_POINT('',(14.4999999999999,20.,5.));
#3410=VERTEX_POINT('',#3400);
#3420=EDGE_CURVE('',#3390,#3410,#3370,.T.);
#3430=ORIENTED_EDGE('',*,*,#3420,.F.);
#3440=EDGE_CURVE('',#3410,#3390,#3370,.T.);
#3450=ORIENTED_EDGE('',*,*,#3440,.F.);
#3460=EDGE_LOOP('',(#3450,#3430));
#3470=FACE_BOUND('',#3460,.T.);
#3480=ADVANCED_FACE('',(#2470,#2620,#3320,#3470),#2320,.T.);
#3490=CARTESIAN_POINT('',(0.,0.,0.));
#3500=DIRECTION('',(-1.,0.,0.));
#3510=DIRECTION('',(0.,1.,0.));
#3520=AXIS2_PLACEMENT_3D('',#3490,#3500,#3510);
#3530=PLANE('',#3520);
#3540=ORIENTED_EDGE('',*,*,#3290,.F.);
#3550=CARTESIAN_POINT('',(0.,1.5,0.));
#3560=DIRECTION('',(0.,0.,1.));
#3570=VECTOR('',#3560,1.);
#3580=LINE('',#3550,#3570);
#3590=EDGE_CURVE('',#1180,#3220,#3580,.T.);
#3600=ORIENTED_EDGE('',*,*,#3590,.T.);
#3610=ORIENTED_EDGE('',*,*,#1530,.T.);
#3620=CARTESIAN_POINT('',(0.,38.5,0.));
#3630=DIRECTION('',(0.,0.,-1.));
#3640=VECTOR('',#3630,1.);
#3650=LINE('',#3620,#3640);
#3660=EDGE_CURVE('',#2690,#1460,#3650,.T.);
#3670=ORIENTED_EDGE('',*,*,#3660,.T.);
#3680=EDGE_LOOP('',(#3670,#3610,#3600,#3540));
#3690=FACE_OUTER_BOUND('',#3680,.T.);
#3700=ADVANCED_FACE('',(#3690),#3530,.T.);
#3710=CARTESIAN_POINT('',(40.,0.,0.));
#3720=DIRECTION('',(-0.,-1.,-0.));
#3730=DIRECTION('',(-1.,0.,0.));
#3740=AXIS2_PLACEMENT_3D('',#3710,#3720,#3730);
#3750=PLANE('',#3740);
#3760=ORIENTED_EDGE('',*,*,#1790,.T.);
#3770=CARTESIAN_POINT('',(1.5,0.,0.));
#3780=DIRECTION('',(0.,0.,1.));
#3790=VECTOR('',#3780,1.);
#3800=LINE('',#3770,#3790);
#3810=EDGE_CURVE('',#1700,#3130,#3800,.T.);
#3820=ORIENTED_EDGE('',*,*,#3810,.F.);
#3830=ORIENTED_EDGE('',*,*,#3140,.F.);
#3840=CARTESIAN_POINT('',(38.5,0.,0.));
#3850=DIRECTION('',(0.,0.,1.));
#3860=VECTOR('',#3850,1.);
#3870=LINE('',#3840,#3860);
#3880=EDGE_CURVE('',#1780,#3050,#3870,.T.);
#3890=ORIENTED_EDGE('',*,*,#3880,.T.);
#3900=EDGE_LOOP('',(#3890,#3830,#3820,#3760));
#3910=FACE_OUTER_BOUND('',#3900,.T.);
#3920=ADVANCED_FACE('',(#3910),#3750,.T.);
#3930=CARTESIAN_POINT('',(40.,40.,0.));
#3940=DIRECTION('',(1.,0.,0.));
#3950=DIRECTION('',(0.,-1.,0.));
#3960=AXIS2_PLACEMENT_3D('',#3930,#3940,#3950);
#3970=PLANE('',#3960);
#3980=ORIENTED_EDGE('',*,*,#850,.T.);
#3990=CARTESIAN_POINT('',(40.,1.5,0.));
#4000=DIRECTION('',(0.,0.,1.));
#4010=VECTOR('',#4000,1.);
#4020=LINE('',#3990,#4010);
#4030=EDGE_CURVE('',#760,#2960,#4020,.T.);
#4040=ORIENTED_EDGE('',*,*,#4030,.F.);
#4050=ORIENTED_EDGE('',*,*,#2970,.F.);
#4060=CARTESIAN_POINT('',(40.,38.5,0.));
#4070=DIRECTION('',(0.,0.,1.));
#4080=VECTOR('',#4070,1.);
#4090=LINE('',#4060,#4080);
#4100=EDGE_CURVE('',#840,#2880,#4090,.T.);
#4110=ORIENTED_EDGE('',*,*,#4100,.T.);
#4120=EDGE_LOOP('',(#4110,#4050,#4040,#3980));
#4130=FACE_OUTER_BOUND('',#4120,.T.);
#4140=ADVANCED_FACE('',(#4130),#3970,.T.);
#4150=CARTESIAN_POINT('',(0.,40.,0.));
#4160=DIRECTION('',(-0.,1.,0.));
#4170=DIRECTION('',(1.,0.,0.));
#4180=AXIS2_PLACEMENT_3D('',#4150,#4160,#4170);
#4190=PLANE('',#4180);
#4200=CARTESIAN_POINT('',(38.5,40.,0.));
#4210=DIRECTION('',(0.,0.,1.));
#4220=VECTOR('',#4210,1.);
#4230=LINE('',#4200,#4220);
#4240=EDGE_CURVE('',#2050,#2790,#4230,.T.);
#4250=ORIENTED_EDGE('',*,*,#4240,.F.);
#4260=ORIENTED_EDGE('',*,*,#2800,.F.);
#4270=CARTESIAN_POINT('',(1.5,40.,0.));
#4280=DIRECTION('',(0.,0.,-1.));
#4290=VECTOR('',#4280,1.);
#4300=LINE('',#4270,#4290);
#4310=EDGE_CURVE('',#2710,#2130,#4300,.T.);
#4320=ORIENTED_EDGE('',*,*,#4310,.F.);
#4330=ORIENTED_EDGE('',*,*,#2140,.T.);
#4340=EDGE_LOOP('',(#4330,#4320,#4260,#4250));
#4350=FACE_OUTER_BOUND('',#4340,.T.);
#4360=ADVANCED_FACE('',(#4350),#4190,.T.);
#4370=CARTESIAN_POINT('',(5.,5.,5.));
#4380=DIRECTION('',(0.,0.,1.));
#4390=DIRECTION('',(-1.,0.,0.));
#4400=AXIS2_PLACEMENT_3D('',#4370,#4380,#4390);
#4410=CYLINDRICAL_SURFACE('',#4400,2.5);
#4420=CARTESIAN_POINT('',(2.5,5.,5.));
#4430=DIRECTION('',(0.,0.,1.));
#4440=VECTOR('',#4430,1.);
#4450=LINE('',#4420,#4440);
#4460=CARTESIAN_POINT('',(2.5,5.,15.));
#4470=VERTEX_POINT('',#4460);
#4480=EDGE_CURVE('',#2540,#4470,#4450,.T.);
#4490=ORIENTED_EDGE('',*,*,#4480,.T.);
#4500=ORIENTED_EDGE('',*,*,#2590,.T.);
#4510=CARTESIAN_POINT('',(7.5,5.,5.));
#4520=DIRECTION('',(0.,0.,1.));
#4530=VECTOR('',#4520,1.);
#4540=LINE('',#4510,#4530);
#4550=CARTESIAN_POINT('',(7.5,5.,15.));
#4560=VERTEX_POINT('',#4550);
#4570=EDGE_CURVE('',#2560,#4560,#4540,.T.);
#4580=ORIENTED_EDGE('',*,*,#4570,.F.);
#4590=CARTESIAN_POINT('',(5.,5.,15.));
#4600=DIRECTION('',(0.,0.,1.));
#4610=DIRECTION('',(-1.,0.,0.));
#4620=AXIS2_PLACEMENT_3D('',#4590,#4600,#4610);
#4630=CIRCLE('',#4620,2.5);
#4640=EDGE_CURVE('',#4560,#4470,#4630,.T.);
#4650=ORIENTED_EDGE('',*,*,#4640,.F.);
#4660=EDGE_LOOP('',(#4650,#4580,#4500,#4490));
#4670=FACE_OUTER_BOUND('',#4660,.T.);
#4680=ADVANCED_FACE('',(#4670),#4410,.T.);
#4690=CARTESIAN_POINT('',(1.5,1.5,0.));
#4700=DIRECTION('',(0.,0.,1.));
#4710=DIRECTION('',(1.,0.,0.));
#4720=AXIS2_PLACEMENT_3D('',#4690,#4700,#4710);
#4730=CYLINDRICAL_SURFACE('',#4720,1.5);
#4740=ORIENTED_EDGE('',*,*,#3230,.F.);
#4750=ORIENTED_EDGE('',*,*,#3810,.T.);
#4760=ORIENTED_EDGE('',*,*,#1710,.T.);
#4770=ORIENTED_EDGE('',*,*,#1210,.T.);
#4780=ORIENTED_EDGE('',*,*,#3590,.F.);
#4790=EDGE_LOOP('',(#4780,#4770,#4760,#4750,#4740));
#4800=FACE_OUTER_BOUND('',#4790,.T.);
#4810=ADVANCED_FACE('',(#4800),#4730,.T.);
#4820=CARTESIAN_POINT('',(30.,30.,15.));
#4830=DIRECTION('',(0.,0.,1.));
#4840=DIRECTION('',(-1.,0.,0.));
#4850=AXIS2_PLACEMENT_3D('',#4820,#4830,#4840);
#4860=PLANE('',#4850);
#4870=EDGE_CURVE('',#4470,#4560,#4630,.T.);
#4880=ORIENTED_EDGE('',*,*,#4870,.T.);
#4890=ORIENTED_EDGE('',*,*,#4640,.T.);
#4900=EDGE_LOOP('',(#4890,#4880));
#4910=FACE_OUTER_BOUND('',#4900,.T.);
#4920=ADVANCED_FACE('',(#4910),#4860,.T.);
#4930=CARTESIAN_POINT('',(35.,35.,5.));
#4940=DIRECTION('',(0.,0.,1.));
#4950=DIRECTION('',(-1.,0.,0.));
#4960=AXIS2_PLACEMENT_3D('',#4930,#4940,#4950);
#4970=CYLINDRICAL_SURFACE('',#4960,2.5);
#4980=CARTESIAN_POINT('',(32.5,35.,5.));
#4990=DIRECTION('',(0.,0.,1.));
#5000=VECTOR('',#4990,1.);
#5010=LINE('',#4980,#5000);
#5020=CARTESIAN_POINT('',(32.5,35.,15.));
#5030=VERTEX_POINT('',#5020);
#5040=EDGE_CURVE('',#2390,#5030,#5010,.T.);
#5050=ORIENTED_EDGE('',*,*,#5040,.T.);
#5060=ORIENTED_EDGE('',*,*,#2440,.T.);
#5070=CARTESIAN_POINT('',(37.5,35.,5.));
#5080=DIRECTION('',(0.,0.,1.));
#5090=VECTOR('',#5080,1.);
#5100=LINE('',#5070,#5090);
#5110=CARTESIAN_POINT('',(37.5,35.,15.));
#5120=VERTEX_POINT('',#5110);
#5130=EDGE_CURVE('',#2410,#5120,#5100,.T.);
#5140=ORIENTED_EDGE('',*,*,#5130,.F.);
#5150=CARTESIAN_POINT('',(35.,35.,15.));
#5160=DIRECTION('',(0.,0.,1.));
#5170=DIRECTION('',(-1.,0.,0.));
#5180=AXIS2_PLACEMENT_3D('',#5150,#5160,#5170);
#5190=CIRCLE('',#5180,2.5);
#5200=EDGE_CURVE('',#5120,#5030,#5190,.T.);
#5210=ORIENTED_EDGE('',*,*,#5200,.F.);
#5220=EDGE_LOOP('',(#5210,#5140,#5060,#5050));
#5230=FACE_OUTER_BOUND('',#5220,.T.);
#5240=ADVANCED_FACE('',(#5230),#4970,.T.);
#5250=CARTESIAN_POINT('',(38.5,1.5,0.));
#5260=DIRECTION('',(0.,0.,1.));
#5270=DIRECTION('',(1.,0.,0.));
#5280=AXIS2_PLACEMENT_3D('',#5250,#5260,#5270);
#5290=CYLINDRICAL_SURFACE('',#5280,1.5);
#5300=ORIENTED_EDGE('',*,*,#3060,.F.);
#5310=ORIENTED_EDGE('',*,*,#4030,.T.);
#5320=ORIENTED_EDGE('',*,*,#770,.F.);
#5330=ORIENTED_EDGE('',*,*,#1860,.T.);
#5340=ORIENTED_EDGE('',*,*,#3880,.F.);
#5350=EDGE_LOOP('',(#5340,#5330,#5320,#5310,#5300));
#5360=FACE_OUTER_BOUND('',#5350,.T.);
#5370=ADVANCED_FACE('',(#5360),#5290,.T.);
#5380=CARTESIAN_POINT('',(10.,10.,15.));
#5390=DIRECTION('',(0.,0.,1.));
#5400=DIRECTION('',(-1.,0.,0.));
#5410=AXIS2_PLACEMENT_3D('',#5380,#5390,#5400);
#5420=PLANE('',#5410);
#5430=EDGE_CURVE('',#5030,#5120,#5190,.T.);
#5440=ORIENTED_EDGE('',*,*,#5430,.T.);
#5450=ORIENTED_EDGE('',*,*,#5200,.T.);
#5460=EDGE_LOOP('',(#5450,#5440));
#5470=FACE_OUTER_BOUND('',#5460,.T.);
#5480=ADVANCED_FACE('',(#5470),#5420,.T.);
#5490=CARTESIAN_POINT('',(38.5,38.5,0.));
#5500=DIRECTION('',(0.,0.,1.));
#5510=DIRECTION('',(1.,0.,0.));
#5520=AXIS2_PLACEMENT_3D('',#5490,#5500,#5510);
#5530=CYLINDRICAL_SURFACE('',#5520,1.5);
#5540=ORIENTED_EDGE('',*,*,#2890,.F.);
#5550=ORIENTED_EDGE('',*,*,#4240,.T.);
#5560=ORIENTED_EDGE('',*,*,#2060,.T.);
#5570=ORIENTED_EDGE('',*,*,#940,.T.);
#5580=ORIENTED_EDGE('',*,*,#4100,.F.);
#5590=EDGE_LOOP('',(#5580,#5570,#5560,#5550,#5540));
#5600=FACE_OUTER_BOUND('',#5590,.T.);
#5610=ADVANCED_FACE('',(#5600),#5530,.T.);
#5620=CARTESIAN_POINT('',(1.5,38.5,0.));
#5630=DIRECTION('',(0.,0.,-1.));
#5640=DIRECTION('',(-1.,0.,0.));
#5650=AXIS2_PLACEMENT_3D('',#5620,#5630,#5640);
#5660=CYLINDRICAL_SURFACE('',#5650,1.5);
#5670=ORIENTED_EDGE('',*,*,#1470,.F.);
#5680=ORIENTED_EDGE('',*,*,#2210,.F.);
#5690=ORIENTED_EDGE('',*,*,#4310,.T.);
#5700=ORIENTED_EDGE('',*,*,#2720,.T.);
#5710=ORIENTED_EDGE('',*,*,#3660,.F.);
#5720=EDGE_LOOP('',(#5710,#5700,#5690,#5680,#5670));
#5730=FACE_OUTER_BOUND('',#5720,.T.);
#5740=ADVANCED_FACE('',(#5730),#5660,.T.);
#5750=CARTESIAN_POINT('',(19.9999999999999,20.,-1.5000024));
#5760=DIRECTION('',(0.,0.,1.));
#5770=DIRECTION('',(1.,0.,0.));
#5780=AXIS2_PLACEMENT_3D('',#5750,#5760,#5770);
#5790=CYLINDRICAL_SURFACE('',#5780,5.5);
#5800=CARTESIAN_POINT('',(25.4999999999999,20.,-1.5000024));
#5810=DIRECTION('',(0.,0.,1.));
#5820=VECTOR('',#5810,1.);
#5830=LINE('',#5800,#5820);
#5840=EDGE_CURVE('',#460,#3390,#5830,.T.);
#5850=ORIENTED_EDGE('',*,*,#5840,.F.);
#5860=ORIENTED_EDGE('',*,*,#3440,.T.);
#5870=CARTESIAN_POINT('',(14.4999999999999,20.,-1.5000024));
#5880=DIRECTION('',(0.,0.,1.));
#5890=VECTOR('',#5880,1.);
#5900=LINE('',#5870,#5890);
#5910=EDGE_CURVE('',#480,#3410,#5900,.T.);
#5920=ORIENTED_EDGE('',*,*,#5910,.T.);
#5930=ORIENTED_EDGE('',*,*,#510,.F.);
#5940=EDGE_LOOP('',(#5930,#5920,#5860,#5850));
#5950=FACE_OUTER_BOUND('',#5940,.T.);
#5960=ADVANCED_FACE('',(#5950),#5790,.F.);
#5970=CARTESIAN_POINT('',(35.,35.,5.));
#5980=DIRECTION('',(0.,0.,1.));
#5990=DIRECTION('',(-1.,0.,0.));
#6000=AXIS2_PLACEMENT_3D('',#5970,#5980,#5990);
#6010=CYLINDRICAL_SURFACE('',#6000,2.5);
#6020=ORIENTED_EDGE('',*,*,#5430,.F.);
#6030=ORIENTED_EDGE('',*,*,#5130,.T.);
#6040=ORIENTED_EDGE('',*,*,#2420,.T.);
#6050=ORIENTED_EDGE('',*,*,#5040,.F.);
#6060=EDGE_LOOP('',(#6050,#6040,#6030,#6020));
#6070=FACE_OUTER_BOUND('',#6060,.T.);
#6080=ADVANCED_FACE('',(#6070),#6010,.T.);
#6090=CARTESIAN_POINT('',(19.9999999999999,20.,-1.5000024));
#6100=DIRECTION('',(0.,0.,1.));
#6110=DIRECTION('',(1.,0.,0.));
#6120=AXIS2_PLACEMENT_3D('',#6090,#6100,#6110);
#6130=CYLINDRICAL_SURFACE('',#6120,5.5);
#6140=ORIENTED_EDGE('',*,*,#490,.F.);
#6150=ORIENTED_EDGE('',*,*,#5910,.F.);
#6160=ORIENTED_EDGE('',*,*,#3420,.T.);
#6170=ORIENTED_EDGE('',*,*,#5840,.T.);
#6180=EDGE_LOOP('',(#6170,#6160,#6150,#6140));
#6190=FACE_OUTER_BOUND('',#6180,.T.);
#6200=ADVANCED_FACE('',(#6190),#6130,.F.);
#6210=CARTESIAN_POINT('',(5.,5.,5.));
#6220=DIRECTION('',(0.,0.,1.));
#6230=DIRECTION('',(-1.,0.,0.));
#6240=AXIS2_PLACEMENT_3D('',#6210,#6220,#6230);
#6250=CYLINDRICAL_SURFACE('',#6240,2.5);
#6260=ORIENTED_EDGE('',*,*,#4870,.F.);
#6270=ORIENTED_EDGE('',*,*,#4570,.T.);
#6280=ORIENTED_EDGE('',*,*,#2570,.T.);
#6290=ORIENTED_EDGE('',*,*,#4480,.F.);
#6300=EDGE_LOOP('',(#6290,#6280,#6270,#6260));
#6310=FACE_OUTER_BOUND('',#6300,.T.);
#6320=ADVANCED_FACE('',(#6310),#6250,.T.);
#6330=CLOSED_SHELL('',(#3700,#3920,#4140,#4360,#4680,#4810,#4920,#5240,
#5370,#5480,#5610,#5740,#5960,#6080,#6200,#6320,#3480,#550,#1060,#1570,
#1920,#2270));
#6340=MANIFOLD_SOLID_BREP('',#6330);
#6350=CARTESIAN_POINT('',(0.,0.,0.));
#6360=DIRECTION('',(0.,0.,1.));
#6370=DIRECTION('',(1.,0.,0.));
#6380=AXIS2_PLACEMENT_3D('',#6350,#6360,#6370);
#6390=APPLICATION_CONTEXT(' ');
#6400=APPLICATION_PROTOCOL_DEFINITION(' ','automotive_design',1998,#6390
);
#6410=PRODUCT_CONTEXT('',#6390,'mechanical');
#6420=PRODUCT_DEFINITION_CONTEXT('part definition',#6390,'design');
#6430=PRODUCT(
'Abdeck-Kappe-MMS-44-AL-Druckguss_40x40x5mm_44.0305.2_PX171786',
'Abdeck-Kappe-MMS-44-AL-Druckguss_40x40x5mm_44.0305.2_PX171786','',(
#6410));
#6440=PRODUCT_RELATED_PRODUCT_CATEGORY('part',' ',(#6430));
#6450=PRODUCT_DEFINITION_FORMATION_WITH_SPECIFIED_SOURCE('','',#6430,
.BOUGHT.);
#6460=PRODUCT_DEFINITION('',' ',#6450,#6420);
#6470=PRODUCT_DEFINITION_SHAPE('','',#6460);
#6480=DIMENSIONAL_EXPONENTS(1.,0.,0.,0.,0.,0.,0.);
#6490=DIMENSIONAL_EXPONENTS(0.,0.,0.,0.,0.,0.,0.);
#6500=DIMENSIONAL_EXPONENTS(0.,0.,0.,0.,0.,0.,0.);
#6510=(LENGTH_UNIT() NAMED_UNIT(*) SI_UNIT(.MILLI.,.METRE.));
#6520=(NAMED_UNIT(*) PLANE_ANGLE_UNIT() SI_UNIT($,.RADIAN.));
#6530=(NAMED_UNIT(*) SI_UNIT($,.STERADIAN.) SOLID_ANGLE_UNIT());
#6540=(GEOMETRIC_REPRESENTATION_CONTEXT(3) 
GLOBAL_UNCERTAINTY_ASSIGNED_CONTEXT((#6550)) 
GLOBAL_UNIT_ASSIGNED_CONTEXT((#6510,#6520,#6530)) REPRESENTATION_CONTEXT
('',''));
#6550=UNCERTAINTY_MEASURE_WITH_UNIT(LENGTH_MEASURE(1.E-6),#6510,
'distance_accuracy_value','maximum gap value');
#6560=ADVANCED_BREP_SHAPE_REPRESENTATION('',(#6380,#6340),#6540);
#6570=SHAPE_DEFINITION_REPRESENTATION(#6470,#6560);
#6580=COLOUR_RGB('',0.639215707778931,0.639215707778931,
0.639215707778931);
#6590=FILL_AREA_STYLE_COLOUR('',#6580);
#6600=FILL_AREA_STYLE('',(#6590));
#6610=SURFACE_STYLE_FILL_AREA(#6600);
#6620=SURFACE_SIDE_STYLE('',(#6610));
#6630=SURFACE_STYLE_USAGE(.BOTH.,#6620);
#6640=PRESENTATION_STYLE_ASSIGNMENT((#6630));
#6650=STYLED_ITEM('',(#6640),#6340);
#6660=DRAUGHTING_MODEL('',(#6650),#6540);
#6670=CARTESIAN_POINT('',(0.100000000000023,40.,5.));
#6680=DIRECTION('',(0.,0.,-1.));
#6690=DIRECTION('',(1.,0.,0.));
#6700=AXIS2_PLACEMENT_3D('',#6670,#6680,#6690);
#6710=ITEM_DEFINED_TRANSFORMATION(
'Abdeck-Kappe-MMS-44-AL-Druckguss_40x40x5mm_44.0305.2_PX171786','',#6380
,#6700);
#6720=APPLICATION_CONTEXT(' ');
#6730=APPLICATION_PROTOCOL_DEFINITION(' ','automotive_design',1998,#6720
);
#6740=PRODUCT_CONTEXT('',#6720,'mechanical');
#6750=PRODUCT_DEFINITION_CONTEXT('part definition',#6720,'design');
#6760=PRODUCT(
'Abdeck-Kappe-MMS-44-AL-Druckguss_40x40x5mm_44.0305.2_PX171786',
'Abdeck-Kappe-MMS-44-AL-Druckguss_40x40x5mm_44.0305.2_PX171786','',(
#6740));
#6770=PRODUCT_RELATED_PRODUCT_CATEGORY('part',' ',(#6760));
#6780=PRODUCT_DEFINITION_FORMATION_WITH_SPECIFIED_SOURCE('','',#6760,
.BOUGHT.);
#6790=PRODUCT_DEFINITION('',' ',#6780,#6750);
#6800=PRODUCT_DEFINITION_SHAPE('','',#6790);
#6810=DIMENSIONAL_EXPONENTS(1.,0.,0.,0.,0.,0.,0.);
#6820=DIMENSIONAL_EXPONENTS(0.,0.,0.,0.,0.,0.,0.);
#6830=DIMENSIONAL_EXPONENTS(0.,0.,0.,0.,0.,0.,0.);
#6840=(LENGTH_UNIT() NAMED_UNIT(*) SI_UNIT(.MILLI.,.METRE.));
#6850=(NAMED_UNIT(*) PLANE_ANGLE_UNIT() SI_UNIT($,.RADIAN.));
#6860=(NAMED_UNIT(*) SI_UNIT($,.STERADIAN.) SOLID_ANGLE_UNIT());
#6870=(GEOMETRIC_REPRESENTATION_CONTEXT(3) 
GLOBAL_UNCERTAINTY_ASSIGNED_CONTEXT((#6880)) 
GLOBAL_UNIT_ASSIGNED_CONTEXT((#6840,#6850,#6860)) REPRESENTATION_CONTEXT
('',''));
#6880=UNCERTAINTY_MEASURE_WITH_UNIT(LENGTH_MEASURE(1.E-6),#6840,
'distance_accuracy_value','maximum gap value');
#6890=SHAPE_REPRESENTATION('',(#6380,#6700),#6870);
#6900=SHAPE_DEFINITION_REPRESENTATION(#6800,#6890);
#6910=(REPRESENTATION_RELATIONSHIP('','',#6560,#6890) 
REPRESENTATION_RELATIONSHIP_WITH_TRANSFORMATION(#6710) 
SHAPE_REPRESENTATION_RELATIONSHIP());
#6920=NEXT_ASSEMBLY_USAGE_OCCURRENCE('1','',
'Abdeck-Kappe-MMS-44-AL-Druckguss_40x40x5mm_44.0305.2_PX171786',#6790,
#6460,'');
#6930=PRODUCT_DEFINITION_SHAPE('','',#6920);
#6940=CONTEXT_DEPENDENT_SHAPE_REPRESENTATION(#6910,#6930);
ENDSEC;
END-ISO-10303-21;
