ISO-10303-21;
HEADER;
FILE_DESCRIPTION(('Creo Elements/Direct Modeling STEP Export'),'2;1');
FILE_NAME(
'//KR-CAD2/PhoenixTemp/karl.letzgus/Konvertierung/44.0321.1_Seitenf\S\|h
rung_37x10-schwarz-leitf\S\dhig.stp','2022-03-21T 8:56:18',(''),(''),
'PTC Creo Elements/Direct Modeling STEP processor for AP214 (Solid Model
)',
'PTC Creo Elements/Direct Modeling 19.0C  15-Aug-2015 (C) Parametric Tec
hnology GmbH','');
FILE_SCHEMA(('AUTOMOTIVE_DESIGN { 1 0 10303 214 1 1 1 1 }'));
ENDSEC;
DATA;
#10=CARTESIAN_POINT('',(0.,0.,2900.));
#20=DIRECTION('',(0.,0.,1.));
#30=DIRECTION('',(1.,0.,0.));
#40=AXIS2_PLACEMENT_3D('',#10,#20,#30);
#50=PLANE('',#40);
#60=CARTESIAN_POINT('',(-15.5,0.,2900.));
#70=DIRECTION('',(-0.707106781186548,-0.707106781186548,0.));
#80=VECTOR('',#70,1.);
#90=LINE('',#60,#80);
#100=CARTESIAN_POINT('',(0.999999999999998,16.5,2900.));
#110=VERTEX_POINT('',#100);
#120=CARTESIAN_POINT('',(3.5527136788005E-15,15.5,2900.));
#130=VERTEX_POINT('',#120);
#140=EDGE_CURVE('',#110,#130,#90,.T.);
#150=ORIENTED_EDGE('',*,*,#140,.F.);
#160=CARTESIAN_POINT('',(0.,6.5,2900.));
#170=DIRECTION('',(0.,1.,0.));
#180=VECTOR('',#170,1.);
#190=LINE('',#160,#180);
#200=CARTESIAN_POINT('',(0.,6.5,2900.));
#210=VERTEX_POINT('',#200);
#220=EDGE_CURVE('',#210,#130,#190,.T.);
#230=ORIENTED_EDGE('',*,*,#220,.T.);
#240=CARTESIAN_POINT('',(13.6,6.5,2900.));
#250=DIRECTION('',(-1.,0.,0.));
#260=VECTOR('',#250,1.);
#270=LINE('',#240,#260);
#280=CARTESIAN_POINT('',(13.5,6.5,2900.));
#290=VERTEX_POINT('',#280);
#300=EDGE_CURVE('',#290,#210,#270,.T.);
#310=ORIENTED_EDGE('',*,*,#300,.T.);
#320=CARTESIAN_POINT('',(13.5,4.4,2900.));
#330=DIRECTION('',(0.,1.,0.));
#340=VECTOR('',#330,1.);
#350=LINE('',#320,#340);
#360=CARTESIAN_POINT('',(13.5,4.49999999999999,2900.));
#370=VERTEX_POINT('',#360);
#380=EDGE_CURVE('',#370,#290,#350,.T.);
#390=ORIENTED_EDGE('',*,*,#380,.T.);
#400=CARTESIAN_POINT('',(9.,4.49999999999999,2900.));
#410=DIRECTION('',(1.,0.,0.));
#420=VECTOR('',#410,1.);
#430=LINE('',#400,#420);
#440=CARTESIAN_POINT('',(8.5,4.49999999999999,2900.));
#450=VERTEX_POINT('',#440);
#460=EDGE_CURVE('',#450,#370,#430,.T.);
#470=ORIENTED_EDGE('',*,*,#460,.T.);
#480=CARTESIAN_POINT('',(8.5,0.,2900.));
#490=DIRECTION('',(0.,1.,0.));
#500=VECTOR('',#490,1.);
#510=LINE('',#480,#500);
#520=CARTESIAN_POINT('',(8.5,-0.5,2900.));
#530=VERTEX_POINT('',#520);
#540=EDGE_CURVE('',#530,#450,#510,.T.);
#550=ORIENTED_EDGE('',*,*,#540,.T.);
#560=CARTESIAN_POINT('',(28.,-0.5,2900.));
#570=DIRECTION('',(-1.,0.,0.));
#580=VECTOR('',#570,1.);
#590=LINE('',#560,#580);
#600=CARTESIAN_POINT('',(28.4999997980893,-0.5,2900.));
#610=VERTEX_POINT('',#600);
#620=EDGE_CURVE('',#610,#530,#590,.T.);
#630=ORIENTED_EDGE('',*,*,#620,.T.);
#640=CARTESIAN_POINT('',(28.4999997980893,4.4,2900.));
#650=DIRECTION('',(0.,-1.,0.));
#660=VECTOR('',#650,1.);
#670=LINE('',#640,#660);
#680=CARTESIAN_POINT('',(28.4999997980893,4.49999999999999,2900.));
#690=VERTEX_POINT('',#680);
#700=EDGE_CURVE('',#690,#610,#670,.T.);
#710=ORIENTED_EDGE('',*,*,#700,.T.);
#720=CARTESIAN_POINT('',(23.4,4.49999999999999,2900.));
#730=DIRECTION('',(1.,0.,0.));
#740=VECTOR('',#730,1.);
#750=LINE('',#720,#740);
#760=CARTESIAN_POINT('',(23.5,4.49999999999999,2900.));
#770=VERTEX_POINT('',#760);
#780=EDGE_CURVE('',#770,#690,#750,.T.);
#790=ORIENTED_EDGE('',*,*,#780,.T.);
#800=CARTESIAN_POINT('',(23.5,6.5,2900.));
#810=DIRECTION('',(0.,-1.,0.));
#820=VECTOR('',#810,1.);
#830=LINE('',#800,#820);
#840=CARTESIAN_POINT('',(23.5,6.5,2900.));
#850=VERTEX_POINT('',#840);
#860=EDGE_CURVE('',#850,#770,#830,.T.);
#870=ORIENTED_EDGE('',*,*,#860,.T.);
#880=CARTESIAN_POINT('',(37.,6.5,2900.));
#890=DIRECTION('',(-1.,0.,0.));
#900=VECTOR('',#890,1.);
#910=LINE('',#880,#900);
#920=CARTESIAN_POINT('',(37.,6.5,2900.));
#930=VERTEX_POINT('',#920);
#940=EDGE_CURVE('',#930,#850,#910,.T.);
#950=ORIENTED_EDGE('',*,*,#940,.T.);
#960=CARTESIAN_POINT('',(37.,16.5,2900.));
#970=DIRECTION('',(0.,-1.,0.));
#980=VECTOR('',#970,1.);
#990=LINE('',#960,#980);
#1000=CARTESIAN_POINT('',(37.,15.5,2900.));
#1010=VERTEX_POINT('',#1000);
#1020=EDGE_CURVE('',#1010,#930,#990,.T.);
#1030=ORIENTED_EDGE('',*,*,#1020,.T.);
#1040=CARTESIAN_POINT('',(52.5,0.,2900.));
#1050=DIRECTION('',(0.707106781186548,-0.707106781186548,0.));
#1060=VECTOR('',#1050,1.);
#1070=LINE('',#1040,#1060);
#1080=CARTESIAN_POINT('',(36.,16.5,2900.));
#1090=VERTEX_POINT('',#1080);
#1100=EDGE_CURVE('',#1090,#1010,#1070,.T.);
#1110=ORIENTED_EDGE('',*,*,#1100,.T.);
#1120=CARTESIAN_POINT('',(0.,16.5,2900.));
#1130=DIRECTION('',(1.,0.,0.));
#1140=VECTOR('',#1130,1.);
#1150=LINE('',#1120,#1140);
#1160=EDGE_CURVE('',#110,#1090,#1150,.T.);
#1170=ORIENTED_EDGE('',*,*,#1160,.T.);
#1180=EDGE_LOOP('',(#1170,#1110,#1030,#950,#870,#790,#710,#630,#550,#470
,#390,#310,#230,#150));
#1190=FACE_OUTER_BOUND('',#1180,.T.);
#1200=ADVANCED_FACE('',(#1190),#50,.F.);
#1210=CARTESIAN_POINT('',(0.,0.,3000.));
#1220=DIRECTION('',(0.,0.,1.));
#1230=DIRECTION('',(1.,0.,0.));
#1240=AXIS2_PLACEMENT_3D('',#1210,#1220,#1230);
#1250=PLANE('',#1240);
#1260=CARTESIAN_POINT('',(-15.5,0.,3000.));
#1270=DIRECTION('',(-0.707106781186548,-0.707106781186548,0.));
#1280=VECTOR('',#1270,1.);
#1290=LINE('',#1260,#1280);
#1300=CARTESIAN_POINT('',(0.999999999999998,16.5,3000.));
#1310=VERTEX_POINT('',#1300);
#1320=CARTESIAN_POINT('',(3.5527136788005E-15,15.5,3000.));
#1330=VERTEX_POINT('',#1320);
#1340=EDGE_CURVE('',#1310,#1330,#1290,.T.);
#1350=ORIENTED_EDGE('',*,*,#1340,.T.);
#1360=CARTESIAN_POINT('',(0.,16.5,3000.));
#1370=DIRECTION('',(1.,0.,0.));
#1380=VECTOR('',#1370,1.);
#1390=LINE('',#1360,#1380);
#1400=CARTESIAN_POINT('',(36.,16.5,3000.));
#1410=VERTEX_POINT('',#1400);
#1420=EDGE_CURVE('',#1310,#1410,#1390,.T.);
#1430=ORIENTED_EDGE('',*,*,#1420,.F.);
#1440=CARTESIAN_POINT('',(52.5,0.,3000.));
#1450=DIRECTION('',(0.707106781186548,-0.707106781186548,0.));
#1460=VECTOR('',#1450,1.);
#1470=LINE('',#1440,#1460);
#1480=CARTESIAN_POINT('',(37.,15.5,3000.));
#1490=VERTEX_POINT('',#1480);
#1500=EDGE_CURVE('',#1410,#1490,#1470,.T.);
#1510=ORIENTED_EDGE('',*,*,#1500,.F.);
#1520=CARTESIAN_POINT('',(37.,16.5,3000.));
#1530=DIRECTION('',(0.,-1.,0.));
#1540=VECTOR('',#1530,1.);
#1550=LINE('',#1520,#1540);
#1560=CARTESIAN_POINT('',(37.,6.5,3000.));
#1570=VERTEX_POINT('',#1560);
#1580=EDGE_CURVE('',#1490,#1570,#1550,.T.);
#1590=ORIENTED_EDGE('',*,*,#1580,.F.);
#1600=CARTESIAN_POINT('',(37.,6.5,3000.));
#1610=DIRECTION('',(-1.,0.,0.));
#1620=VECTOR('',#1610,1.);
#1630=LINE('',#1600,#1620);
#1640=CARTESIAN_POINT('',(23.5,6.5,3000.));
#1650=VERTEX_POINT('',#1640);
#1660=EDGE_CURVE('',#1570,#1650,#1630,.T.);
#1670=ORIENTED_EDGE('',*,*,#1660,.F.);
#1680=CARTESIAN_POINT('',(23.5,6.5,3000.));
#1690=DIRECTION('',(0.,-1.,0.));
#1700=VECTOR('',#1690,1.);
#1710=LINE('',#1680,#1700);
#1720=CARTESIAN_POINT('',(23.5,4.49999999999999,3000.));
#1730=VERTEX_POINT('',#1720);
#1740=EDGE_CURVE('',#1650,#1730,#1710,.T.);
#1750=ORIENTED_EDGE('',*,*,#1740,.F.);
#1760=CARTESIAN_POINT('',(23.4,4.49999999999999,3000.));
#1770=DIRECTION('',(1.,0.,0.));
#1780=VECTOR('',#1770,1.);
#1790=LINE('',#1760,#1780);
#1800=CARTESIAN_POINT('',(28.4999997980893,4.49999999999999,3000.));
#1810=VERTEX_POINT('',#1800);
#1820=EDGE_CURVE('',#1730,#1810,#1790,.T.);
#1830=ORIENTED_EDGE('',*,*,#1820,.F.);
#1840=CARTESIAN_POINT('',(28.4999997980893,4.4,3000.));
#1850=DIRECTION('',(0.,-1.,0.));
#1860=VECTOR('',#1850,1.);
#1870=LINE('',#1840,#1860);
#1880=CARTESIAN_POINT('',(28.4999997980893,-0.5,3000.));
#1890=VERTEX_POINT('',#1880);
#1900=EDGE_CURVE('',#1810,#1890,#1870,.T.);
#1910=ORIENTED_EDGE('',*,*,#1900,.F.);
#1920=CARTESIAN_POINT('',(28.,-0.5,3000.));
#1930=DIRECTION('',(-1.,0.,0.));
#1940=VECTOR('',#1930,1.);
#1950=LINE('',#1920,#1940);
#1960=CARTESIAN_POINT('',(8.5,-0.5,3000.));
#1970=VERTEX_POINT('',#1960);
#1980=EDGE_CURVE('',#1890,#1970,#1950,.T.);
#1990=ORIENTED_EDGE('',*,*,#1980,.F.);
#2000=CARTESIAN_POINT('',(8.5,0.,3000.));
#2010=DIRECTION('',(0.,1.,0.));
#2020=VECTOR('',#2010,1.);
#2030=LINE('',#2000,#2020);
#2040=CARTESIAN_POINT('',(8.5,4.49999999999999,3000.));
#2050=VERTEX_POINT('',#2040);
#2060=EDGE_CURVE('',#1970,#2050,#2030,.T.);
#2070=ORIENTED_EDGE('',*,*,#2060,.F.);
#2080=CARTESIAN_POINT('',(9.,4.49999999999999,3000.));
#2090=DIRECTION('',(1.,0.,0.));
#2100=VECTOR('',#2090,1.);
#2110=LINE('',#2080,#2100);
#2120=CARTESIAN_POINT('',(13.5,4.49999999999999,3000.));
#2130=VERTEX_POINT('',#2120);
#2140=EDGE_CURVE('',#2050,#2130,#2110,.T.);
#2150=ORIENTED_EDGE('',*,*,#2140,.F.);
#2160=CARTESIAN_POINT('',(13.5,4.4,3000.));
#2170=DIRECTION('',(0.,1.,0.));
#2180=VECTOR('',#2170,1.);
#2190=LINE('',#2160,#2180);
#2200=CARTESIAN_POINT('',(13.5,6.5,3000.));
#2210=VERTEX_POINT('',#2200);
#2220=EDGE_CURVE('',#2130,#2210,#2190,.T.);
#2230=ORIENTED_EDGE('',*,*,#2220,.F.);
#2240=CARTESIAN_POINT('',(13.6,6.5,3000.));
#2250=DIRECTION('',(-1.,0.,0.));
#2260=VECTOR('',#2250,1.);
#2270=LINE('',#2240,#2260);
#2280=CARTESIAN_POINT('',(0.,6.5,3000.));
#2290=VERTEX_POINT('',#2280);
#2300=EDGE_CURVE('',#2210,#2290,#2270,.T.);
#2310=ORIENTED_EDGE('',*,*,#2300,.F.);
#2320=CARTESIAN_POINT('',(0.,6.5,3000.));
#2330=DIRECTION('',(0.,1.,0.));
#2340=VECTOR('',#2330,1.);
#2350=LINE('',#2320,#2340);
#2360=EDGE_CURVE('',#2290,#1330,#2350,.T.);
#2370=ORIENTED_EDGE('',*,*,#2360,.F.);
#2380=EDGE_LOOP('',(#2370,#2310,#2230,#2150,#2070,#1990,#1910,#1830,
#1750,#1670,#1590,#1510,#1430,#1350));
#2390=FACE_OUTER_BOUND('',#2380,.T.);
#2400=ADVANCED_FACE('',(#2390),#1250,.T.);
#2410=CARTESIAN_POINT('',(0.,6.5,0.));
#2420=DIRECTION('',(-1.,0.,0.));
#2430=DIRECTION('',(0.,1.,0.));
#2440=AXIS2_PLACEMENT_3D('',#2410,#2420,#2430);
#2450=PLANE('',#2440);
#2460=ORIENTED_EDGE('',*,*,#2360,.T.);
#2470=CARTESIAN_POINT('',(0.,6.5,0.));
#2480=DIRECTION('',(0.,0.,1.));
#2490=VECTOR('',#2480,1.);
#2500=LINE('',#2470,#2490);
#2510=EDGE_CURVE('',#210,#2290,#2500,.T.);
#2520=ORIENTED_EDGE('',*,*,#2510,.T.);
#2530=ORIENTED_EDGE('',*,*,#220,.F.);
#2540=CARTESIAN_POINT('',(0.,15.5,1500.));
#2550=DIRECTION('',(0.,0.,1.));
#2560=VECTOR('',#2550,1.);
#2570=LINE('',#2540,#2560);
#2580=EDGE_CURVE('',#130,#1330,#2570,.T.);
#2590=ORIENTED_EDGE('',*,*,#2580,.F.);
#2600=EDGE_LOOP('',(#2590,#2530,#2520,#2460));
#2610=FACE_OUTER_BOUND('',#2600,.T.);
#2620=ADVANCED_FACE('',(#2610),#2450,.T.);
#2630=CARTESIAN_POINT('',(13.6,6.5,0.));
#2640=DIRECTION('',(-0.,-1.,-0.));
#2650=DIRECTION('',(-1.,0.,0.));
#2660=AXIS2_PLACEMENT_3D('',#2630,#2640,#2650);
#2670=PLANE('',#2660);
#2680=ORIENTED_EDGE('',*,*,#2510,.F.);
#2690=ORIENTED_EDGE('',*,*,#2300,.T.);
#2700=CARTESIAN_POINT('',(13.5,6.5,0.));
#2710=DIRECTION('',(0.,0.,1.));
#2720=VECTOR('',#2710,1.);
#2730=LINE('',#2700,#2720);
#2740=EDGE_CURVE('',#290,#2210,#2730,.T.);
#2750=ORIENTED_EDGE('',*,*,#2740,.T.);
#2760=ORIENTED_EDGE('',*,*,#300,.F.);
#2770=EDGE_LOOP('',(#2760,#2750,#2690,#2680));
#2780=FACE_OUTER_BOUND('',#2770,.T.);
#2790=ADVANCED_FACE('',(#2780),#2670,.T.);
#2800=CARTESIAN_POINT('',(13.5,4.4,0.));
#2810=DIRECTION('',(-1.,0.,0.));
#2820=DIRECTION('',(0.,1.,0.));
#2830=AXIS2_PLACEMENT_3D('',#2800,#2810,#2820);
#2840=PLANE('',#2830);
#2850=ORIENTED_EDGE('',*,*,#2740,.F.);
#2860=ORIENTED_EDGE('',*,*,#2220,.T.);
#2870=CARTESIAN_POINT('',(13.5,4.49999999999999,0.));
#2880=DIRECTION('',(0.,0.,1.));
#2890=VECTOR('',#2880,1.);
#2900=LINE('',#2870,#2890);
#2910=EDGE_CURVE('',#370,#2130,#2900,.T.);
#2920=ORIENTED_EDGE('',*,*,#2910,.T.);
#2930=ORIENTED_EDGE('',*,*,#380,.F.);
#2940=EDGE_LOOP('',(#2930,#2920,#2860,#2850));
#2950=FACE_OUTER_BOUND('',#2940,.T.);
#2960=ADVANCED_FACE('',(#2950),#2840,.T.);
#2970=CARTESIAN_POINT('',(9.,4.49999999999999,0.));
#2980=DIRECTION('',(-0.,1.,0.));
#2990=DIRECTION('',(1.,0.,0.));
#3000=AXIS2_PLACEMENT_3D('',#2970,#2980,#2990);
#3010=PLANE('',#3000);
#3020=ORIENTED_EDGE('',*,*,#2910,.F.);
#3030=ORIENTED_EDGE('',*,*,#2140,.T.);
#3040=CARTESIAN_POINT('',(8.5,4.49999999999999,0.));
#3050=DIRECTION('',(0.,0.,1.));
#3060=VECTOR('',#3050,1.);
#3070=LINE('',#3040,#3060);
#3080=EDGE_CURVE('',#450,#2050,#3070,.T.);
#3090=ORIENTED_EDGE('',*,*,#3080,.T.);
#3100=ORIENTED_EDGE('',*,*,#460,.F.);
#3110=EDGE_LOOP('',(#3100,#3090,#3030,#3020));
#3120=FACE_OUTER_BOUND('',#3110,.T.);
#3130=ADVANCED_FACE('',(#3120),#3010,.T.);
#3140=CARTESIAN_POINT('',(8.5,0.,0.));
#3150=DIRECTION('',(-1.,0.,0.));
#3160=DIRECTION('',(0.,1.,0.));
#3170=AXIS2_PLACEMENT_3D('',#3140,#3150,#3160);
#3180=PLANE('',#3170);
#3190=ORIENTED_EDGE('',*,*,#3080,.F.);
#3200=ORIENTED_EDGE('',*,*,#2060,.T.);
#3210=CARTESIAN_POINT('',(8.5,-0.5,0.));
#3220=DIRECTION('',(0.,0.,1.));
#3230=VECTOR('',#3220,1.);
#3240=LINE('',#3210,#3230);
#3250=EDGE_CURVE('',#530,#1970,#3240,.T.);
#3260=ORIENTED_EDGE('',*,*,#3250,.T.);
#3270=ORIENTED_EDGE('',*,*,#540,.F.);
#3280=EDGE_LOOP('',(#3270,#3260,#3200,#3190));
#3290=FACE_OUTER_BOUND('',#3280,.T.);
#3300=ADVANCED_FACE('',(#3290),#3180,.T.);
#3310=CARTESIAN_POINT('',(28.,-0.5,0.));
#3320=DIRECTION('',(-0.,-1.,-0.));
#3330=DIRECTION('',(-1.,0.,0.));
#3340=AXIS2_PLACEMENT_3D('',#3310,#3320,#3330);
#3350=PLANE('',#3340);
#3360=ORIENTED_EDGE('',*,*,#3250,.F.);
#3370=ORIENTED_EDGE('',*,*,#1980,.T.);
#3380=CARTESIAN_POINT('',(28.4999997980893,-0.5,0.));
#3390=DIRECTION('',(0.,0.,1.));
#3400=VECTOR('',#3390,1.);
#3410=LINE('',#3380,#3400);
#3420=EDGE_CURVE('',#610,#1890,#3410,.T.);
#3430=ORIENTED_EDGE('',*,*,#3420,.T.);
#3440=ORIENTED_EDGE('',*,*,#620,.F.);
#3450=EDGE_LOOP('',(#3440,#3430,#3370,#3360));
#3460=FACE_OUTER_BOUND('',#3450,.T.);
#3470=ADVANCED_FACE('',(#3460),#3350,.T.);
#3480=CARTESIAN_POINT('',(28.4999997980893,4.4,0.));
#3490=DIRECTION('',(1.,0.,0.));
#3500=DIRECTION('',(0.,-1.,0.));
#3510=AXIS2_PLACEMENT_3D('',#3480,#3490,#3500);
#3520=PLANE('',#3510);
#3530=ORIENTED_EDGE('',*,*,#3420,.F.);
#3540=ORIENTED_EDGE('',*,*,#1900,.T.);
#3550=CARTESIAN_POINT('',(28.4999997980893,4.49999999999999,0.));
#3560=DIRECTION('',(0.,0.,1.));
#3570=VECTOR('',#3560,1.);
#3580=LINE('',#3550,#3570);
#3590=EDGE_CURVE('',#690,#1810,#3580,.T.);
#3600=ORIENTED_EDGE('',*,*,#3590,.T.);
#3610=ORIENTED_EDGE('',*,*,#700,.F.);
#3620=EDGE_LOOP('',(#3610,#3600,#3540,#3530));
#3630=FACE_OUTER_BOUND('',#3620,.T.);
#3640=ADVANCED_FACE('',(#3630),#3520,.T.);
#3650=CARTESIAN_POINT('',(23.4,4.49999999999999,0.));
#3660=DIRECTION('',(-0.,1.,0.));
#3670=DIRECTION('',(1.,0.,0.));
#3680=AXIS2_PLACEMENT_3D('',#3650,#3660,#3670);
#3690=PLANE('',#3680);
#3700=ORIENTED_EDGE('',*,*,#3590,.F.);
#3710=ORIENTED_EDGE('',*,*,#1820,.T.);
#3720=CARTESIAN_POINT('',(23.5,4.49999999999999,0.));
#3730=DIRECTION('',(0.,0.,1.));
#3740=VECTOR('',#3730,1.);
#3750=LINE('',#3720,#3740);
#3760=EDGE_CURVE('',#770,#1730,#3750,.T.);
#3770=ORIENTED_EDGE('',*,*,#3760,.T.);
#3780=ORIENTED_EDGE('',*,*,#780,.F.);
#3790=EDGE_LOOP('',(#3780,#3770,#3710,#3700));
#3800=FACE_OUTER_BOUND('',#3790,.T.);
#3810=ADVANCED_FACE('',(#3800),#3690,.T.);
#3820=CARTESIAN_POINT('',(23.5,6.5,0.));
#3830=DIRECTION('',(1.,0.,0.));
#3840=DIRECTION('',(0.,-1.,0.));
#3850=AXIS2_PLACEMENT_3D('',#3820,#3830,#3840);
#3860=PLANE('',#3850);
#3870=ORIENTED_EDGE('',*,*,#3760,.F.);
#3880=ORIENTED_EDGE('',*,*,#1740,.T.);
#3890=CARTESIAN_POINT('',(23.5,6.5,0.));
#3900=DIRECTION('',(0.,0.,1.));
#3910=VECTOR('',#3900,1.);
#3920=LINE('',#3890,#3910);
#3930=EDGE_CURVE('',#850,#1650,#3920,.T.);
#3940=ORIENTED_EDGE('',*,*,#3930,.T.);
#3950=ORIENTED_EDGE('',*,*,#860,.F.);
#3960=EDGE_LOOP('',(#3950,#3940,#3880,#3870));
#3970=FACE_OUTER_BOUND('',#3960,.T.);
#3980=ADVANCED_FACE('',(#3970),#3860,.T.);
#3990=CARTESIAN_POINT('',(37.,6.5,0.));
#4000=DIRECTION('',(-0.,-1.,-0.));
#4010=DIRECTION('',(-1.,0.,0.));
#4020=AXIS2_PLACEMENT_3D('',#3990,#4000,#4010);
#4030=PLANE('',#4020);
#4040=ORIENTED_EDGE('',*,*,#3930,.F.);
#4050=ORIENTED_EDGE('',*,*,#1660,.T.);
#4060=CARTESIAN_POINT('',(37.,6.5,0.));
#4070=DIRECTION('',(0.,0.,1.));
#4080=VECTOR('',#4070,1.);
#4090=LINE('',#4060,#4080);
#4100=EDGE_CURVE('',#930,#1570,#4090,.T.);
#4110=ORIENTED_EDGE('',*,*,#4100,.T.);
#4120=ORIENTED_EDGE('',*,*,#940,.F.);
#4130=EDGE_LOOP('',(#4120,#4110,#4050,#4040));
#4140=FACE_OUTER_BOUND('',#4130,.T.);
#4150=ADVANCED_FACE('',(#4140),#4030,.T.);
#4160=CARTESIAN_POINT('',(37.,16.5,0.));
#4170=DIRECTION('',(1.,0.,0.));
#4180=DIRECTION('',(0.,-1.,0.));
#4190=AXIS2_PLACEMENT_3D('',#4160,#4170,#4180);
#4200=PLANE('',#4190);
#4210=ORIENTED_EDGE('',*,*,#1020,.F.);
#4220=ORIENTED_EDGE('',*,*,#4100,.F.);
#4230=ORIENTED_EDGE('',*,*,#1580,.T.);
#4240=CARTESIAN_POINT('',(37.,15.5,1500.));
#4250=DIRECTION('',(0.,0.,1.));
#4260=VECTOR('',#4250,1.);
#4270=LINE('',#4240,#4260);
#4280=EDGE_CURVE('',#1010,#1490,#4270,.T.);
#4290=ORIENTED_EDGE('',*,*,#4280,.T.);
#4300=EDGE_LOOP('',(#4290,#4230,#4220,#4210));
#4310=FACE_OUTER_BOUND('',#4300,.T.);
#4320=ADVANCED_FACE('',(#4310),#4200,.T.);
#4330=CARTESIAN_POINT('',(0.,16.5,0.));
#4340=DIRECTION('',(-0.,1.,0.));
#4350=DIRECTION('',(1.,0.,0.));
#4360=AXIS2_PLACEMENT_3D('',#4330,#4340,#4350);
#4370=PLANE('',#4360);
#4380=CARTESIAN_POINT('',(36.,16.5,1500.));
#4390=DIRECTION('',(0.,0.,1.));
#4400=VECTOR('',#4390,1.);
#4410=LINE('',#4380,#4400);
#4420=EDGE_CURVE('',#1090,#1410,#4410,.T.);
#4430=ORIENTED_EDGE('',*,*,#4420,.F.);
#4440=ORIENTED_EDGE('',*,*,#1420,.T.);
#4450=CARTESIAN_POINT('',(1.,16.5,1500.));
#4460=DIRECTION('',(0.,0.,1.));
#4470=VECTOR('',#4460,1.);
#4480=LINE('',#4450,#4470);
#4490=EDGE_CURVE('',#110,#1310,#4480,.T.);
#4500=ORIENTED_EDGE('',*,*,#4490,.T.);
#4510=ORIENTED_EDGE('',*,*,#1160,.F.);
#4520=EDGE_LOOP('',(#4510,#4500,#4440,#4430));
#4530=FACE_OUTER_BOUND('',#4520,.T.);
#4540=ADVANCED_FACE('',(#4530),#4370,.T.);
#4550=CARTESIAN_POINT('',(0.5,16.,1500.));
#4560=DIRECTION('',(0.707106781186548,-0.707106781186548,0.));
#4570=DIRECTION('',(0.707106781186547,0.707106781186547,0.));
#4580=AXIS2_PLACEMENT_3D('',#4550,#4560,#4570);
#4590=PLANE('',#4580);
#4600=ORIENTED_EDGE('',*,*,#140,.T.);
#4610=ORIENTED_EDGE('',*,*,#4490,.F.);
#4620=ORIENTED_EDGE('',*,*,#1340,.F.);
#4630=ORIENTED_EDGE('',*,*,#2580,.T.);
#4640=EDGE_LOOP('',(#4630,#4620,#4610,#4600));
#4650=FACE_OUTER_BOUND('',#4640,.T.);
#4660=ADVANCED_FACE('',(#4650),#4590,.F.);
#4670=CARTESIAN_POINT('',(36.5,16.,1500.));
#4680=DIRECTION('',(0.707106781186548,0.707106781186548,-0.));
#4690=DIRECTION('',(-0.707106781186547,0.707106781186547,0.));
#4700=AXIS2_PLACEMENT_3D('',#4670,#4680,#4690);
#4710=PLANE('',#4700);
#4720=ORIENTED_EDGE('',*,*,#1500,.T.);
#4730=ORIENTED_EDGE('',*,*,#4420,.T.);
#4740=ORIENTED_EDGE('',*,*,#1100,.F.);
#4750=ORIENTED_EDGE('',*,*,#4280,.F.);
#4760=EDGE_LOOP('',(#4750,#4740,#4730,#4720));
#4770=FACE_OUTER_BOUND('',#4760,.T.);
#4780=ADVANCED_FACE('',(#4770),#4710,.T.);
#4790=CLOSED_SHELL('',(#2620,#2790,#2960,#3130,#3300,#3470,#3640,#3810,
#3980,#4150,#4320,#4540,#4660,#4780,#2400,#1200));
#4800=MANIFOLD_SOLID_BREP('',#4790);
#4810=CARTESIAN_POINT('',(0.,0.,0.));
#4820=DIRECTION('',(0.,0.,1.));
#4830=DIRECTION('',(1.,0.,0.));
#4840=AXIS2_PLACEMENT_3D('',#4810,#4820,#4830);
#4850=APPLICATION_CONTEXT(' ');
#4860=APPLICATION_PROTOCOL_DEFINITION(' ','automotive_design',1998,#4850
);
#4870=PRODUCT_CONTEXT('',#4850,'mechanical');
#4880=PRODUCT_DEFINITION_CONTEXT('part definition',#4850,'design');
#4890=PRODUCT(
'Seitenf\S\|hrungsprofil-MMS-44_37x10-schwarz-leitf\S\dhig_44.0321.1_PX1
71817',
'Seitenf\S\|hrungsprofil-MMS-44_37x10-schwarz-leitf\S\dhig_44.0321.1_PX1
71817','',(#4870));
#4900=PRODUCT_RELATED_PRODUCT_CATEGORY('part',' ',(#4890));
#4910=PRODUCT_DEFINITION_FORMATION_WITH_SPECIFIED_SOURCE('','',#4890,
.BOUGHT.);
#4920=PRODUCT_DEFINITION('',' ',#4910,#4880);
#4930=PRODUCT_DEFINITION_SHAPE('','',#4920);
#4940=DIMENSIONAL_EXPONENTS(1.,0.,0.,0.,0.,0.,0.);
#4950=DIMENSIONAL_EXPONENTS(0.,0.,0.,0.,0.,0.,0.);
#4960=DIMENSIONAL_EXPONENTS(0.,0.,0.,0.,0.,0.,0.);
#4970=(LENGTH_UNIT() NAMED_UNIT(*) SI_UNIT(.MILLI.,.METRE.));
#4980=(NAMED_UNIT(*) PLANE_ANGLE_UNIT() SI_UNIT($,.RADIAN.));
#4990=(NAMED_UNIT(*) SI_UNIT($,.STERADIAN.) SOLID_ANGLE_UNIT());
#5000=(GEOMETRIC_REPRESENTATION_CONTEXT(3) 
GLOBAL_UNCERTAINTY_ASSIGNED_CONTEXT((#5010)) 
GLOBAL_UNIT_ASSIGNED_CONTEXT((#4970,#4980,#4990)) REPRESENTATION_CONTEXT
('',''));
#5010=UNCERTAINTY_MEASURE_WITH_UNIT(LENGTH_MEASURE(1.E-6),#4970,
'distance_accuracy_value','maximum gap value');
#5020=ADVANCED_BREP_SHAPE_REPRESENTATION('',(#4840,#4800),#5000);
#5030=SHAPE_DEFINITION_REPRESENTATION(#4930,#5020);
#5040=COLOUR_RGB('',0.0823529437184334,0.0862745121121407,
0.0980392247438431);
#5050=FILL_AREA_STYLE_COLOUR('',#5040);
#5060=FILL_AREA_STYLE('',(#5050));
#5070=SURFACE_STYLE_FILL_AREA(#5060);
#5080=SURFACE_SIDE_STYLE('',(#5070));
#5090=SURFACE_STYLE_USAGE(.BOTH.,#5080);
#5100=PRESENTATION_STYLE_ASSIGNMENT((#5090));
#5110=STYLED_ITEM('',(#5100),#4800);
#5120=DRAUGHTING_MODEL('',(#5110),#5000);
#5130=CARTESIAN_POINT('',(0.,0.5,-2900.));
#5140=DIRECTION('',(0.,0.,1.));
#5150=DIRECTION('',(1.,0.,0.));
#5160=AXIS2_PLACEMENT_3D('',#5130,#5140,#5150);
#5170=ITEM_DEFINED_TRANSFORMATION(
'Seitenf\S\|hrungsprofil-MMS-44_37x10-schwarz-leitf\S\dhig_44.0321.1_PX1
71817','',#4840,#5160);
#5180=APPLICATION_CONTEXT(' ');
#5190=APPLICATION_PROTOCOL_DEFINITION(' ','automotive_design',1998,#5180
);
#5200=PRODUCT_CONTEXT('',#5180,'mechanical');
#5210=PRODUCT_DEFINITION_CONTEXT('part definition',#5180,'design');
#5220=PRODUCT(
'Seitenf\S\|hrungsprofil-MMS-44_37x10-schwarz-leitf\S\dhig_44.0321.1_PX1
71817',
'Seitenf\S\|hrungsprofil-MMS-44_37x10-schwarz-leitf\S\dhig_44.0321.1_PX1
71817','',(#5200));
#5230=PRODUCT_RELATED_PRODUCT_CATEGORY('part',' ',(#5220));
#5240=PRODUCT_DEFINITION_FORMATION_WITH_SPECIFIED_SOURCE('','',#5220,
.BOUGHT.);
#5250=PRODUCT_DEFINITION('',' ',#5240,#5210);
#5260=PRODUCT_DEFINITION_SHAPE('','',#5250);
#5270=DIMENSIONAL_EXPONENTS(1.,0.,0.,0.,0.,0.,0.);
#5280=DIMENSIONAL_EXPONENTS(0.,0.,0.,0.,0.,0.,0.);
#5290=DIMENSIONAL_EXPONENTS(0.,0.,0.,0.,0.,0.,0.);
#5300=(LENGTH_UNIT() NAMED_UNIT(*) SI_UNIT(.MILLI.,.METRE.));
#5310=(NAMED_UNIT(*) PLANE_ANGLE_UNIT() SI_UNIT($,.RADIAN.));
#5320=(NAMED_UNIT(*) SI_UNIT($,.STERADIAN.) SOLID_ANGLE_UNIT());
#5330=(GEOMETRIC_REPRESENTATION_CONTEXT(3) 
GLOBAL_UNCERTAINTY_ASSIGNED_CONTEXT((#5340)) 
GLOBAL_UNIT_ASSIGNED_CONTEXT((#5300,#5310,#5320)) REPRESENTATION_CONTEXT
('',''));
#5340=UNCERTAINTY_MEASURE_WITH_UNIT(LENGTH_MEASURE(1.E-6),#5300,
'distance_accuracy_value','maximum gap value');
#5350=SHAPE_REPRESENTATION('',(#4840,#5160),#5330);
#5360=SHAPE_DEFINITION_REPRESENTATION(#5260,#5350);
#5370=(REPRESENTATION_RELATIONSHIP('','',#5020,#5350) 
REPRESENTATION_RELATIONSHIP_WITH_TRANSFORMATION(#5170) 
SHAPE_REPRESENTATION_RELATIONSHIP());
#5380=NEXT_ASSEMBLY_USAGE_OCCURRENCE('1','',
'Seitenf\S\|hrungsprofil-MMS-44_37x10-schwarz-leitf\S\dhig_44.0321.1_PX1
71817',#5250,#4920,'');
#5390=PRODUCT_DEFINITION_SHAPE('','',#5380);
#5400=CONTEXT_DEPENDENT_SHAPE_REPRESENTATION(#5370,#5390);
ENDSEC;
END-ISO-10303-21;
