ISO-10303-21;
HEADER;
FILE_DESCRIPTION(('Creo Elements/Direct Modeling STEP Export'),'2;1');
FILE_NAME(
'//KR-CAD2/PhoenixTemp/karl.letzgus/Konvertierung/44.0365.2_Dichtring_3-
8-Zoll.stp','2022-03-21T 9:03:57',(''),(''),
'PTC Creo Elements/Direct Modeling STEP processor for AP214 (Solid Model
)',
'PTC Creo Elements/Direct Modeling 19.0C  15-Aug-2015 (C) Parametric Tec
hnology GmbH','');
FILE_SCHEMA(('AUTOMOTIVE_DESIGN { 1 0 10303 214 1 1 1 1 }'));
ENDSEC;
DATA;
#10=CARTESIAN_POINT('',(0.,0.,0.));
#20=DIRECTION('',(0.,0.,1.));
#30=DIRECTION('',(-1.,0.,0.));
#40=AXIS2_PLACEMENT_3D('',#10,#20,#30);
#50=CYLINDRICAL_SURFACE('',#40,8.5);
#60=CARTESIAN_POINT('',(8.5,-1.04094977927525E-15,0.));
#70=DIRECTION('',(0.,0.,1.));
#80=VECTOR('',#70,1.);
#90=LINE('',#60,#80);
#100=CARTESIAN_POINT('',(8.5,-1.04094977927525E-15,-0.5));
#110=VERTEX_POINT('',#100);
#120=CARTESIAN_POINT('',(8.5,-1.04094977927525E-15,0.5));
#130=VERTEX_POINT('',#120);
#140=EDGE_CURVE('',#110,#130,#90,.T.);
#150=ORIENTED_EDGE('',*,*,#140,.F.);
#160=CARTESIAN_POINT('',(0.,0.,0.5));
#170=DIRECTION('',(0.,0.,-1.));
#180=DIRECTION('',(-1.,0.,0.));
#190=AXIS2_PLACEMENT_3D('',#160,#170,#180);
#200=CIRCLE('',#190,8.5);
#210=CARTESIAN_POINT('',(-8.5,0.,0.5));
#220=VERTEX_POINT('',#210);
#230=EDGE_CURVE('',#130,#220,#200,.T.);
#240=ORIENTED_EDGE('',*,*,#230,.F.);
#250=CARTESIAN_POINT('',(-8.5,0.,0.));
#260=DIRECTION('',(0.,0.,1.));
#270=VECTOR('',#260,1.);
#280=LINE('',#250,#270);
#290=CARTESIAN_POINT('',(-8.5,0.,-0.5));
#300=VERTEX_POINT('',#290);
#310=EDGE_CURVE('',#300,#220,#280,.T.);
#320=ORIENTED_EDGE('',*,*,#310,.T.);
#330=CARTESIAN_POINT('',(0.,0.,-0.5));
#340=DIRECTION('',(0.,0.,1.));
#350=DIRECTION('',(-1.,0.,0.));
#360=AXIS2_PLACEMENT_3D('',#330,#340,#350);
#370=CIRCLE('',#360,8.5);
#380=EDGE_CURVE('',#300,#110,#370,.T.);
#390=ORIENTED_EDGE('',*,*,#380,.F.);
#400=EDGE_LOOP('',(#390,#320,#240,#150));
#410=FACE_OUTER_BOUND('',#400,.T.);
#420=ADVANCED_FACE('',(#410),#50,.F.);
#430=CARTESIAN_POINT('',(0.,0.,-0.5));
#440=DIRECTION('',(0.,0.,-1.));
#450=DIRECTION('',(-1.,0.,0.));
#460=AXIS2_PLACEMENT_3D('',#430,#440,#450);
#470=PLANE('',#460);
#480=CARTESIAN_POINT('',(0.,0.,-0.5));
#490=DIRECTION('',(0.,0.,1.));
#500=DIRECTION('',(-1.,0.,0.));
#510=AXIS2_PLACEMENT_3D('',#480,#490,#500);
#520=CIRCLE('',#510,11.);
#530=CARTESIAN_POINT('',(11.,-1.34711147906209E-15,-0.5));
#540=VERTEX_POINT('',#530);
#550=CARTESIAN_POINT('',(-11.,0.,-0.5));
#560=VERTEX_POINT('',#550);
#570=EDGE_CURVE('',#540,#560,#520,.T.);
#580=ORIENTED_EDGE('',*,*,#570,.F.);
#590=EDGE_CURVE('',#560,#540,#520,.T.);
#600=ORIENTED_EDGE('',*,*,#590,.F.);
#610=EDGE_LOOP('',(#600,#580));
#620=FACE_OUTER_BOUND('',#610,.T.);
#630=EDGE_CURVE('',#110,#300,#370,.T.);
#640=ORIENTED_EDGE('',*,*,#630,.T.);
#650=ORIENTED_EDGE('',*,*,#380,.T.);
#660=EDGE_LOOP('',(#650,#640));
#670=FACE_BOUND('',#660,.T.);
#680=ADVANCED_FACE('',(#620,#670),#470,.T.);
#690=CARTESIAN_POINT('',(0.,0.,0.));
#700=DIRECTION('',(0.,0.,1.));
#710=DIRECTION('',(-1.,0.,0.));
#720=AXIS2_PLACEMENT_3D('',#690,#700,#710);
#730=CYLINDRICAL_SURFACE('',#720,11.);
#740=CARTESIAN_POINT('',(-11.,0.,0.));
#750=DIRECTION('',(0.,0.,1.));
#760=VECTOR('',#750,1.);
#770=LINE('',#740,#760);
#780=CARTESIAN_POINT('',(-11.,0.,0.5));
#790=VERTEX_POINT('',#780);
#800=EDGE_CURVE('',#560,#790,#770,.T.);
#810=ORIENTED_EDGE('',*,*,#800,.F.);
#820=CARTESIAN_POINT('',(0.,0.,0.5));
#830=DIRECTION('',(0.,0.,-1.));
#840=DIRECTION('',(-1.,0.,0.));
#850=AXIS2_PLACEMENT_3D('',#820,#830,#840);
#860=CIRCLE('',#850,11.);
#870=CARTESIAN_POINT('',(11.,-1.34711147906209E-15,0.5));
#880=VERTEX_POINT('',#870);
#890=EDGE_CURVE('',#880,#790,#860,.T.);
#900=ORIENTED_EDGE('',*,*,#890,.T.);
#910=CARTESIAN_POINT('',(11.,-1.34711147906209E-15,0.));
#920=DIRECTION('',(0.,0.,1.));
#930=VECTOR('',#920,1.);
#940=LINE('',#910,#930);
#950=EDGE_CURVE('',#540,#880,#940,.T.);
#960=ORIENTED_EDGE('',*,*,#950,.T.);
#970=ORIENTED_EDGE('',*,*,#590,.T.);
#980=EDGE_LOOP('',(#970,#960,#900,#810));
#990=FACE_OUTER_BOUND('',#980,.T.);
#1000=ADVANCED_FACE('',(#990),#730,.T.);
#1010=CARTESIAN_POINT('',(0.,0.,0.5));
#1020=DIRECTION('',(0.,0.,-1.));
#1030=DIRECTION('',(-1.,0.,0.));
#1040=AXIS2_PLACEMENT_3D('',#1010,#1020,#1030);
#1050=PLANE('',#1040);
#1060=ORIENTED_EDGE('',*,*,#890,.F.);
#1070=EDGE_CURVE('',#790,#880,#860,.T.);
#1080=ORIENTED_EDGE('',*,*,#1070,.F.);
#1090=EDGE_LOOP('',(#1080,#1060));
#1100=FACE_OUTER_BOUND('',#1090,.T.);
#1110=ORIENTED_EDGE('',*,*,#230,.T.);
#1120=EDGE_CURVE('',#220,#130,#200,.T.);
#1130=ORIENTED_EDGE('',*,*,#1120,.T.);
#1140=EDGE_LOOP('',(#1130,#1110));
#1150=FACE_BOUND('',#1140,.T.);
#1160=ADVANCED_FACE('',(#1100,#1150),#1050,.F.);
#1170=CARTESIAN_POINT('',(0.,0.,0.));
#1180=DIRECTION('',(0.,0.,1.));
#1190=DIRECTION('',(-1.,0.,0.));
#1200=AXIS2_PLACEMENT_3D('',#1170,#1180,#1190);
#1210=CYLINDRICAL_SURFACE('',#1200,11.);
#1220=ORIENTED_EDGE('',*,*,#800,.T.);
#1230=ORIENTED_EDGE('',*,*,#570,.T.);
#1240=ORIENTED_EDGE('',*,*,#950,.F.);
#1250=ORIENTED_EDGE('',*,*,#1070,.T.);
#1260=EDGE_LOOP('',(#1250,#1240,#1230,#1220));
#1270=FACE_OUTER_BOUND('',#1260,.T.);
#1280=ADVANCED_FACE('',(#1270),#1210,.T.);
#1290=CARTESIAN_POINT('',(0.,0.,0.));
#1300=DIRECTION('',(0.,0.,1.));
#1310=DIRECTION('',(-1.,0.,0.));
#1320=AXIS2_PLACEMENT_3D('',#1290,#1300,#1310);
#1330=CYLINDRICAL_SURFACE('',#1320,8.5);
#1340=ORIENTED_EDGE('',*,*,#140,.T.);
#1350=ORIENTED_EDGE('',*,*,#630,.F.);
#1360=ORIENTED_EDGE('',*,*,#310,.F.);
#1370=ORIENTED_EDGE('',*,*,#1120,.F.);
#1380=EDGE_LOOP('',(#1370,#1360,#1350,#1340));
#1390=FACE_OUTER_BOUND('',#1380,.T.);
#1400=ADVANCED_FACE('',(#1390),#1330,.F.);
#1410=CLOSED_SHELL('',(#420,#680,#1000,#1160,#1280,#1400));
#1420=MANIFOLD_SOLID_BREP('',#1410);
#1430=CARTESIAN_POINT('',(0.,0.,0.));
#1440=DIRECTION('',(0.,0.,1.));
#1450=DIRECTION('',(1.,0.,0.));
#1460=AXIS2_PLACEMENT_3D('',#1430,#1440,#1450);
#1470=APPLICATION_CONTEXT(' ');
#1480=APPLICATION_PROTOCOL_DEFINITION(' ','automotive_design',1998,#1470
);
#1490=PRODUCT_CONTEXT('',#1470,'mechanical');
#1500=PRODUCT_DEFINITION_CONTEXT('part definition',#1470,'design');
#1510=PRODUCT('Dichtring_38_44.0365.2_PX175807',
'Dichtring_38_44.0365.2_PX175807','',(#1490));
#1520=PRODUCT_RELATED_PRODUCT_CATEGORY('part',' ',(#1510));
#1530=PRODUCT_DEFINITION_FORMATION_WITH_SPECIFIED_SOURCE('','',#1510,
.BOUGHT.);
#1540=PRODUCT_DEFINITION('',' ',#1530,#1500);
#1550=PRODUCT_DEFINITION_SHAPE('','',#1540);
#1560=DIMENSIONAL_EXPONENTS(1.,0.,0.,0.,0.,0.,0.);
#1570=DIMENSIONAL_EXPONENTS(0.,0.,0.,0.,0.,0.,0.);
#1580=DIMENSIONAL_EXPONENTS(0.,0.,0.,0.,0.,0.,0.);
#1590=(LENGTH_UNIT() NAMED_UNIT(*) SI_UNIT(.MILLI.,.METRE.));
#1600=(NAMED_UNIT(*) PLANE_ANGLE_UNIT() SI_UNIT($,.RADIAN.));
#1610=(NAMED_UNIT(*) SI_UNIT($,.STERADIAN.) SOLID_ANGLE_UNIT());
#1620=(GEOMETRIC_REPRESENTATION_CONTEXT(3) 
GLOBAL_UNCERTAINTY_ASSIGNED_CONTEXT((#1630)) 
GLOBAL_UNIT_ASSIGNED_CONTEXT((#1590,#1600,#1610)) REPRESENTATION_CONTEXT
('',''));
#1630=UNCERTAINTY_MEASURE_WITH_UNIT(LENGTH_MEASURE(1.E-6),#1590,
'distance_accuracy_value','maximum gap value');
#1640=ADVANCED_BREP_SHAPE_REPRESENTATION('',(#1460,#1420),#1620);
#1650=SHAPE_DEFINITION_REPRESENTATION(#1550,#1640);
#1660=COLOUR_RGB('',0.5686274766922,0.564705908298492,0.537254929542542)
;
#1670=FILL_AREA_STYLE_COLOUR('',#1660);
#1680=FILL_AREA_STYLE('',(#1670));
#1690=SURFACE_STYLE_FILL_AREA(#1680);
#1700=SURFACE_SIDE_STYLE('',(#1690));
#1710=SURFACE_STYLE_USAGE(.BOTH.,#1700);
#1720=PRESENTATION_STYLE_ASSIGNMENT((#1710));
#1730=STYLED_ITEM('',(#1720),#1420);
#1740=DRAUGHTING_MODEL('',(#1730),#1620);
ENDSEC;
END-ISO-10303-21;
