ISO-10303-21;
HEADER;
FILE_DESCRIPTION(('Creo Elements/Direct Modeling STEP Export'),'2;1');
FILE_NAME(
'//KR-CAD2/PhoenixTemp/karl.letzgus/Konvertierung/44.0390_Abschlusswinke
l-MMS-44_50x40x40x6.stp','2022-03-21T 9:02:58',(''),(''),
'PTC Creo Elements/Direct Modeling STEP processor for AP214 (Solid Model
)',
'PTC Creo Elements/Direct Modeling 19.0C  15-Aug-2015 (C) Parametric Tec
hnology GmbH','');
FILE_SCHEMA(('AUTOMOTIVE_DESIGN { 1 0 10303 214 1 1 1 1 }'));
ENDSEC;
DATA;
#10=CARTESIAN_POINT('',(0.,0.,0.));
#20=DIRECTION('',(0.,0.,1.));
#30=DIRECTION('',(1.,0.,0.));
#40=AXIS2_PLACEMENT_3D('',#10,#20,#30);
#50=PLANE('',#40);
#60=CARTESIAN_POINT('',(0.,0.,0.));
#70=DIRECTION('',(1.,0.,0.));
#80=VECTOR('',#70,1.);
#90=LINE('',#60,#80);
#100=CARTESIAN_POINT('',(0.,0.,0.));
#110=VERTEX_POINT('',#100);
#120=CARTESIAN_POINT('',(50.,0.,0.));
#130=VERTEX_POINT('',#120);
#140=EDGE_CURVE('',#110,#130,#90,.T.);
#150=ORIENTED_EDGE('',*,*,#140,.F.);
#160=CARTESIAN_POINT('',(50.,0.,0.));
#170=DIRECTION('',(-1.1842378929335E-15,1.,0.));
#180=VECTOR('',#170,1.);
#190=LINE('',#160,#180);
#200=CARTESIAN_POINT('',(50.,6.,0.));
#210=VERTEX_POINT('',#200);
#220=EDGE_CURVE('',#130,#210,#190,.T.);
#230=ORIENTED_EDGE('',*,*,#220,.F.);
#240=CARTESIAN_POINT('',(50.,6.,0.));
#250=DIRECTION('',(-1.,-1.81672858575026E-16,0.));
#260=VECTOR('',#250,1.);
#270=LINE('',#240,#260);
#280=CARTESIAN_POINT('',(5.99999999999999,5.99999999999999,0.));
#290=VERTEX_POINT('',#280);
#300=EDGE_CURVE('',#210,#290,#270,.T.);
#310=ORIENTED_EDGE('',*,*,#300,.F.);
#320=CARTESIAN_POINT('',(5.99999999999999,5.99999999999999,0.));
#330=DIRECTION('',(-1.56737368182375E-16,1.,0.));
#340=VECTOR('',#330,1.);
#350=LINE('',#320,#340);
#360=CARTESIAN_POINT('',(5.99999999999999,40.,0.));
#370=VERTEX_POINT('',#360);
#380=EDGE_CURVE('',#290,#370,#350,.T.);
#390=ORIENTED_EDGE('',*,*,#380,.F.);
#400=CARTESIAN_POINT('',(5.99999999999999,40.,0.));
#410=DIRECTION('',(-1.,0.,0.));
#420=VECTOR('',#410,1.);
#430=LINE('',#400,#420);
#440=CARTESIAN_POINT('',(0.,40.,0.));
#450=VERTEX_POINT('',#440);
#460=EDGE_CURVE('',#370,#450,#430,.T.);
#470=ORIENTED_EDGE('',*,*,#460,.F.);
#480=CARTESIAN_POINT('',(0.,40.,0.));
#490=DIRECTION('',(0.,-1.,0.));
#500=VECTOR('',#490,1.);
#510=LINE('',#480,#500);
#520=EDGE_CURVE('',#450,#110,#510,.T.);
#530=ORIENTED_EDGE('',*,*,#520,.F.);
#540=EDGE_LOOP('',(#530,#470,#390,#310,#230,#150));
#550=FACE_OUTER_BOUND('',#540,.T.);
#560=ADVANCED_FACE('',(#550),#50,.F.);
#570=CARTESIAN_POINT('',(0.,0.,40.));
#580=DIRECTION('',(0.,0.,1.));
#590=DIRECTION('',(1.,0.,0.));
#600=AXIS2_PLACEMENT_3D('',#570,#580,#590);
#610=PLANE('',#600);
#620=CARTESIAN_POINT('',(0.,40.,40.));
#630=DIRECTION('',(0.,-1.,0.));
#640=VECTOR('',#630,1.);
#650=LINE('',#620,#640);
#660=CARTESIAN_POINT('',(0.,40.,40.));
#670=VERTEX_POINT('',#660);
#680=CARTESIAN_POINT('',(0.,0.,40.));
#690=VERTEX_POINT('',#680);
#700=EDGE_CURVE('',#670,#690,#650,.T.);
#710=ORIENTED_EDGE('',*,*,#700,.T.);
#720=CARTESIAN_POINT('',(5.99999999999999,40.,40.));
#730=DIRECTION('',(-1.,0.,0.));
#740=VECTOR('',#730,1.);
#750=LINE('',#720,#740);
#760=CARTESIAN_POINT('',(5.99999999999999,40.,40.));
#770=VERTEX_POINT('',#760);
#780=EDGE_CURVE('',#770,#670,#750,.T.);
#790=ORIENTED_EDGE('',*,*,#780,.T.);
#800=CARTESIAN_POINT('',(5.99999999999999,5.99999999999999,40.));
#810=DIRECTION('',(-1.56737368182375E-16,1.,0.));
#820=VECTOR('',#810,1.);
#830=LINE('',#800,#820);
#840=CARTESIAN_POINT('',(5.99999999999999,5.99999999999999,40.));
#850=VERTEX_POINT('',#840);
#860=EDGE_CURVE('',#850,#770,#830,.T.);
#870=ORIENTED_EDGE('',*,*,#860,.T.);
#880=CARTESIAN_POINT('',(50.,6.,40.));
#890=DIRECTION('',(-1.,-1.81672858575026E-16,0.));
#900=VECTOR('',#890,1.);
#910=LINE('',#880,#900);
#920=CARTESIAN_POINT('',(50.,6.,40.));
#930=VERTEX_POINT('',#920);
#940=EDGE_CURVE('',#930,#850,#910,.T.);
#950=ORIENTED_EDGE('',*,*,#940,.T.);
#960=CARTESIAN_POINT('',(50.,0.,40.));
#970=DIRECTION('',(-1.1842378929335E-15,1.,0.));
#980=VECTOR('',#970,1.);
#990=LINE('',#960,#980);
#1000=CARTESIAN_POINT('',(50.,0.,40.));
#1010=VERTEX_POINT('',#1000);
#1020=EDGE_CURVE('',#1010,#930,#990,.T.);
#1030=ORIENTED_EDGE('',*,*,#1020,.T.);
#1040=CARTESIAN_POINT('',(0.,0.,40.));
#1050=DIRECTION('',(1.,0.,0.));
#1060=VECTOR('',#1050,1.);
#1070=LINE('',#1040,#1060);
#1080=EDGE_CURVE('',#690,#1010,#1070,.T.);
#1090=ORIENTED_EDGE('',*,*,#1080,.T.);
#1100=EDGE_LOOP('',(#1090,#1030,#950,#870,#790,#710));
#1110=FACE_OUTER_BOUND('',#1100,.T.);
#1120=ADVANCED_FACE('',(#1110),#610,.T.);
#1130=CARTESIAN_POINT('',(50.,0.,0.));
#1140=DIRECTION('',(-0.,-1.,-0.));
#1150=DIRECTION('',(-1.,0.,0.));
#1160=AXIS2_PLACEMENT_3D('',#1130,#1140,#1150);
#1170=PLANE('',#1160);
#1180=CARTESIAN_POINT('',(0.,0.,0.));
#1190=DIRECTION('',(0.,0.,1.));
#1200=VECTOR('',#1190,1.);
#1210=LINE('',#1180,#1200);
#1220=EDGE_CURVE('',#110,#690,#1210,.T.);
#1230=ORIENTED_EDGE('',*,*,#1220,.F.);
#1240=ORIENTED_EDGE('',*,*,#1080,.F.);
#1250=CARTESIAN_POINT('',(50.,0.,0.));
#1260=DIRECTION('',(0.,0.,1.));
#1270=VECTOR('',#1260,1.);
#1280=LINE('',#1250,#1270);
#1290=EDGE_CURVE('',#130,#1010,#1280,.T.);
#1300=ORIENTED_EDGE('',*,*,#1290,.T.);
#1310=ORIENTED_EDGE('',*,*,#140,.T.);
#1320=EDGE_LOOP('',(#1310,#1300,#1240,#1230));
#1330=FACE_OUTER_BOUND('',#1320,.T.);
#1340=CARTESIAN_POINT('',(15.,0.,5.));
#1350=DIRECTION('',(-1.82710989195454E-16,1.,0.));
#1360=DIRECTION('',(1.,1.82710989195454E-16,0.));
#1370=AXIS2_PLACEMENT_3D('',#1340,#1350,#1360);
#1380=CIRCLE('',#1370,3.5);
#1390=CARTESIAN_POINT('',(18.5,0.,5.));
#1400=VERTEX_POINT('',#1390);
#1410=CARTESIAN_POINT('',(11.5,0.,5.));
#1420=VERTEX_POINT('',#1410);
#1430=EDGE_CURVE('',#1400,#1420,#1380,.T.);
#1440=ORIENTED_EDGE('',*,*,#1430,.T.);
#1450=EDGE_CURVE('',#1420,#1400,#1380,.T.);
#1460=ORIENTED_EDGE('',*,*,#1450,.T.);
#1470=EDGE_LOOP('',(#1460,#1440));
#1480=FACE_BOUND('',#1470,.T.);
#1490=CARTESIAN_POINT('',(15.,0.,35.));
#1500=DIRECTION('',(-1.82710989195454E-16,1.,0.));
#1510=DIRECTION('',(1.,1.82710989195454E-16,0.));
#1520=AXIS2_PLACEMENT_3D('',#1490,#1500,#1510);
#1530=CIRCLE('',#1520,3.5);
#1540=CARTESIAN_POINT('',(18.5,0.,35.));
#1550=VERTEX_POINT('',#1540);
#1560=CARTESIAN_POINT('',(11.5,0.,35.));
#1570=VERTEX_POINT('',#1560);
#1580=EDGE_CURVE('',#1550,#1570,#1530,.T.);
#1590=ORIENTED_EDGE('',*,*,#1580,.T.);
#1600=EDGE_CURVE('',#1570,#1550,#1530,.T.);
#1610=ORIENTED_EDGE('',*,*,#1600,.T.);
#1620=EDGE_LOOP('',(#1610,#1590));
#1630=FACE_BOUND('',#1620,.T.);
#1640=CARTESIAN_POINT('',(45.,0.,5.));
#1650=DIRECTION('',(-1.82710989195454E-16,1.,0.));
#1660=DIRECTION('',(1.,1.82710989195454E-16,0.));
#1670=AXIS2_PLACEMENT_3D('',#1640,#1650,#1660);
#1680=CIRCLE('',#1670,3.5);
#1690=CARTESIAN_POINT('',(48.5,0.,5.));
#1700=VERTEX_POINT('',#1690);
#1710=CARTESIAN_POINT('',(41.5,0.,5.));
#1720=VERTEX_POINT('',#1710);
#1730=EDGE_CURVE('',#1700,#1720,#1680,.T.);
#1740=ORIENTED_EDGE('',*,*,#1730,.T.);
#1750=EDGE_CURVE('',#1720,#1700,#1680,.T.);
#1760=ORIENTED_EDGE('',*,*,#1750,.T.);
#1770=EDGE_LOOP('',(#1760,#1740));
#1780=FACE_BOUND('',#1770,.T.);
#1790=CARTESIAN_POINT('',(45.,0.,35.));
#1800=DIRECTION('',(-1.82710989195454E-16,1.,0.));
#1810=DIRECTION('',(1.,1.82710989195454E-16,0.));
#1820=AXIS2_PLACEMENT_3D('',#1790,#1800,#1810);
#1830=CIRCLE('',#1820,3.5);
#1840=CARTESIAN_POINT('',(48.5,0.,35.));
#1850=VERTEX_POINT('',#1840);
#1860=CARTESIAN_POINT('',(41.5,0.,35.));
#1870=VERTEX_POINT('',#1860);
#1880=EDGE_CURVE('',#1850,#1870,#1830,.T.);
#1890=ORIENTED_EDGE('',*,*,#1880,.T.);
#1900=EDGE_CURVE('',#1870,#1850,#1830,.T.);
#1910=ORIENTED_EDGE('',*,*,#1900,.T.);
#1920=EDGE_LOOP('',(#1910,#1890));
#1930=FACE_BOUND('',#1920,.T.);
#1940=ADVANCED_FACE('',(#1330,#1480,#1630,#1780,#1930),#1170,.T.);
#1950=CARTESIAN_POINT('',(50.,6.,0.));
#1960=DIRECTION('',(1.,1.1842378929335E-15,0.));
#1970=DIRECTION('',(1.1842378929335E-15,-1.,0.));
#1980=AXIS2_PLACEMENT_3D('',#1950,#1960,#1970);
#1990=PLANE('',#1980);
#2000=ORIENTED_EDGE('',*,*,#1290,.F.);
#2010=ORIENTED_EDGE('',*,*,#1020,.F.);
#2020=CARTESIAN_POINT('',(50.,6.,0.));
#2030=DIRECTION('',(0.,0.,1.));
#2040=VECTOR('',#2030,1.);
#2050=LINE('',#2020,#2040);
#2060=EDGE_CURVE('',#210,#930,#2050,.T.);
#2070=ORIENTED_EDGE('',*,*,#2060,.T.);
#2080=ORIENTED_EDGE('',*,*,#220,.T.);
#2090=EDGE_LOOP('',(#2080,#2070,#2010,#2000));
#2100=FACE_OUTER_BOUND('',#2090,.T.);
#2110=ADVANCED_FACE('',(#2100),#1990,.T.);
#2120=CARTESIAN_POINT('',(5.99999999999999,5.99999999999999,0.));
#2130=DIRECTION('',(-1.81672858575026E-16,1.,0.));
#2140=DIRECTION('',(1.,1.81672858575026E-16,0.));
#2150=AXIS2_PLACEMENT_3D('',#2120,#2130,#2140);
#2160=PLANE('',#2150);
#2170=ORIENTED_EDGE('',*,*,#2060,.F.);
#2180=ORIENTED_EDGE('',*,*,#940,.F.);
#2190=CARTESIAN_POINT('',(5.99999999999999,5.99999999999999,0.));
#2200=DIRECTION('',(0.,0.,1.));
#2210=VECTOR('',#2200,1.);
#2220=LINE('',#2190,#2210);
#2230=EDGE_CURVE('',#290,#850,#2220,.T.);
#2240=ORIENTED_EDGE('',*,*,#2230,.T.);
#2250=ORIENTED_EDGE('',*,*,#300,.T.);
#2260=EDGE_LOOP('',(#2250,#2240,#2180,#2170));
#2270=FACE_OUTER_BOUND('',#2260,.T.);
#2280=CARTESIAN_POINT('',(15.,6.,5.));
#2290=DIRECTION('',(-1.82710989195454E-16,1.,0.));
#2300=DIRECTION('',(1.,1.82710989195454E-16,0.));
#2310=AXIS2_PLACEMENT_3D('',#2280,#2290,#2300);
#2320=CIRCLE('',#2310,3.5);
#2330=CARTESIAN_POINT('',(18.5,6.,5.));
#2340=VERTEX_POINT('',#2330);
#2350=CARTESIAN_POINT('',(11.5,6.,5.));
#2360=VERTEX_POINT('',#2350);
#2370=EDGE_CURVE('',#2340,#2360,#2320,.T.);
#2380=ORIENTED_EDGE('',*,*,#2370,.F.);
#2390=EDGE_CURVE('',#2360,#2340,#2320,.T.);
#2400=ORIENTED_EDGE('',*,*,#2390,.F.);
#2410=EDGE_LOOP('',(#2400,#2380));
#2420=FACE_BOUND('',#2410,.T.);
#2430=CARTESIAN_POINT('',(15.,6.,35.));
#2440=DIRECTION('',(-1.82710989195454E-16,1.,0.));
#2450=DIRECTION('',(1.,1.82710989195454E-16,0.));
#2460=AXIS2_PLACEMENT_3D('',#2430,#2440,#2450);
#2470=CIRCLE('',#2460,3.5);
#2480=CARTESIAN_POINT('',(18.5,6.,35.));
#2490=VERTEX_POINT('',#2480);
#2500=CARTESIAN_POINT('',(11.5,6.,35.));
#2510=VERTEX_POINT('',#2500);
#2520=EDGE_CURVE('',#2490,#2510,#2470,.T.);
#2530=ORIENTED_EDGE('',*,*,#2520,.F.);
#2540=EDGE_CURVE('',#2510,#2490,#2470,.T.);
#2550=ORIENTED_EDGE('',*,*,#2540,.F.);
#2560=EDGE_LOOP('',(#2550,#2530));
#2570=FACE_BOUND('',#2560,.T.);
#2580=CARTESIAN_POINT('',(45.,6.,5.));
#2590=DIRECTION('',(-1.82710989195454E-16,1.,0.));
#2600=DIRECTION('',(1.,1.82710989195454E-16,0.));
#2610=AXIS2_PLACEMENT_3D('',#2580,#2590,#2600);
#2620=CIRCLE('',#2610,3.5);
#2630=CARTESIAN_POINT('',(48.5,6.,5.));
#2640=VERTEX_POINT('',#2630);
#2650=CARTESIAN_POINT('',(41.5,6.,5.));
#2660=VERTEX_POINT('',#2650);
#2670=EDGE_CURVE('',#2640,#2660,#2620,.T.);
#2680=ORIENTED_EDGE('',*,*,#2670,.F.);
#2690=EDGE_CURVE('',#2660,#2640,#2620,.T.);
#2700=ORIENTED_EDGE('',*,*,#2690,.F.);
#2710=EDGE_LOOP('',(#2700,#2680));
#2720=FACE_BOUND('',#2710,.T.);
#2730=CARTESIAN_POINT('',(45.,6.,35.));
#2740=DIRECTION('',(-1.82710989195454E-16,1.,0.));
#2750=DIRECTION('',(1.,1.82710989195454E-16,0.));
#2760=AXIS2_PLACEMENT_3D('',#2730,#2740,#2750);
#2770=CIRCLE('',#2760,3.5);
#2780=CARTESIAN_POINT('',(48.5,6.,35.));
#2790=VERTEX_POINT('',#2780);
#2800=CARTESIAN_POINT('',(41.5,6.,35.));
#2810=VERTEX_POINT('',#2800);
#2820=EDGE_CURVE('',#2790,#2810,#2770,.T.);
#2830=ORIENTED_EDGE('',*,*,#2820,.F.);
#2840=EDGE_CURVE('',#2810,#2790,#2770,.T.);
#2850=ORIENTED_EDGE('',*,*,#2840,.F.);
#2860=EDGE_LOOP('',(#2850,#2830));
#2870=FACE_BOUND('',#2860,.T.);
#2880=ADVANCED_FACE('',(#2270,#2420,#2570,#2720,#2870),#2160,.T.);
#2890=CARTESIAN_POINT('',(5.99999999999999,40.,0.));
#2900=DIRECTION('',(1.,1.56737368182375E-16,0.));
#2910=DIRECTION('',(1.56737368182375E-16,-1.,0.));
#2920=AXIS2_PLACEMENT_3D('',#2890,#2900,#2910);
#2930=PLANE('',#2920);
#2940=ORIENTED_EDGE('',*,*,#2230,.F.);
#2950=ORIENTED_EDGE('',*,*,#860,.F.);
#2960=CARTESIAN_POINT('',(5.99999999999999,40.,0.));
#2970=DIRECTION('',(0.,0.,1.));
#2980=VECTOR('',#2970,1.);
#2990=LINE('',#2960,#2980);
#3000=EDGE_CURVE('',#370,#770,#2990,.T.);
#3010=ORIENTED_EDGE('',*,*,#3000,.T.);
#3020=ORIENTED_EDGE('',*,*,#380,.T.);
#3030=EDGE_LOOP('',(#3020,#3010,#2950,#2940));
#3040=FACE_OUTER_BOUND('',#3030,.T.);
#3050=CARTESIAN_POINT('',(6.,20.,20.));
#3060=DIRECTION('',(1.,1.57898385724467E-16,0.));
#3070=DIRECTION('',(-1.57898385724467E-16,1.,0.));
#3080=AXIS2_PLACEMENT_3D('',#3050,#3060,#3070);
#3090=CIRCLE('',#3080,4.5);
#3100=CARTESIAN_POINT('',(6.,24.5,20.));
#3110=VERTEX_POINT('',#3100);
#3120=CARTESIAN_POINT('',(6.,15.5,20.));
#3130=VERTEX_POINT('',#3120);
#3140=EDGE_CURVE('',#3110,#3130,#3090,.T.);
#3150=ORIENTED_EDGE('',*,*,#3140,.F.);
#3160=EDGE_CURVE('',#3130,#3110,#3090,.T.);
#3170=ORIENTED_EDGE('',*,*,#3160,.F.);
#3180=EDGE_LOOP('',(#3170,#3150));
#3190=FACE_BOUND('',#3180,.T.);
#3200=ADVANCED_FACE('',(#3040,#3190),#2930,.T.);
#3210=CARTESIAN_POINT('',(0.,40.,0.));
#3220=DIRECTION('',(-0.,1.,0.));
#3230=DIRECTION('',(1.,0.,0.));
#3240=AXIS2_PLACEMENT_3D('',#3210,#3220,#3230);
#3250=PLANE('',#3240);
#3260=ORIENTED_EDGE('',*,*,#3000,.F.);
#3270=ORIENTED_EDGE('',*,*,#780,.F.);
#3280=CARTESIAN_POINT('',(0.,40.,0.));
#3290=DIRECTION('',(0.,0.,1.));
#3300=VECTOR('',#3290,1.);
#3310=LINE('',#3280,#3300);
#3320=EDGE_CURVE('',#450,#670,#3310,.T.);
#3330=ORIENTED_EDGE('',*,*,#3320,.T.);
#3340=ORIENTED_EDGE('',*,*,#460,.T.);
#3350=EDGE_LOOP('',(#3340,#3330,#3270,#3260));
#3360=FACE_OUTER_BOUND('',#3350,.T.);
#3370=ADVANCED_FACE('',(#3360),#3250,.T.);
#3380=CARTESIAN_POINT('',(0.,0.,0.));
#3390=DIRECTION('',(-1.,0.,0.));
#3400=DIRECTION('',(0.,1.,0.));
#3410=AXIS2_PLACEMENT_3D('',#3380,#3390,#3400);
#3420=PLANE('',#3410);
#3430=ORIENTED_EDGE('',*,*,#3320,.F.);
#3440=ORIENTED_EDGE('',*,*,#700,.F.);
#3450=ORIENTED_EDGE('',*,*,#1220,.T.);
#3460=ORIENTED_EDGE('',*,*,#520,.T.);
#3470=EDGE_LOOP('',(#3460,#3450,#3440,#3430));
#3480=FACE_OUTER_BOUND('',#3470,.T.);
#3490=CARTESIAN_POINT('',(0.,20.,20.));
#3500=DIRECTION('',(1.,1.57898385724467E-16,0.));
#3510=DIRECTION('',(-1.57898385724467E-16,1.,0.));
#3520=AXIS2_PLACEMENT_3D('',#3490,#3500,#3510);
#3530=CIRCLE('',#3520,4.5);
#3540=CARTESIAN_POINT('',(0.,24.5,20.));
#3550=VERTEX_POINT('',#3540);
#3560=CARTESIAN_POINT('',(0.,15.5,20.));
#3570=VERTEX_POINT('',#3560);
#3580=EDGE_CURVE('',#3550,#3570,#3530,.T.);
#3590=ORIENTED_EDGE('',*,*,#3580,.T.);
#3600=EDGE_CURVE('',#3570,#3550,#3530,.T.);
#3610=ORIENTED_EDGE('',*,*,#3600,.T.);
#3620=EDGE_LOOP('',(#3610,#3590));
#3630=FACE_BOUND('',#3620,.T.);
#3640=ADVANCED_FACE('',(#3480,#3630),#3420,.T.);
#3650=CARTESIAN_POINT('',(15.0000000000001,-344.,5.));
#3660=DIRECTION('',(-1.82710989195454E-16,1.,0.));
#3670=DIRECTION('',(1.,1.82710989195454E-16,0.));
#3680=AXIS2_PLACEMENT_3D('',#3650,#3660,#3670);
#3690=CYLINDRICAL_SURFACE('',#3680,3.5);
#3700=CARTESIAN_POINT('',(18.5000000000001,-344.,5.));
#3710=DIRECTION('',(-1.82710989195454E-16,1.,0.));
#3720=VECTOR('',#3710,1.);
#3730=LINE('',#3700,#3720);
#3740=EDGE_CURVE('',#1400,#2340,#3730,.T.);
#3750=ORIENTED_EDGE('',*,*,#3740,.F.);
#3760=ORIENTED_EDGE('',*,*,#2390,.T.);
#3770=CARTESIAN_POINT('',(11.5000000000001,-344.,5.));
#3780=DIRECTION('',(-1.82710989195454E-16,1.,0.));
#3790=VECTOR('',#3780,1.);
#3800=LINE('',#3770,#3790);
#3810=EDGE_CURVE('',#1420,#2360,#3800,.T.);
#3820=ORIENTED_EDGE('',*,*,#3810,.T.);
#3830=ORIENTED_EDGE('',*,*,#1450,.F.);
#3840=EDGE_LOOP('',(#3830,#3820,#3760,#3750));
#3850=FACE_OUTER_BOUND('',#3840,.T.);
#3860=ADVANCED_FACE('',(#3850),#3690,.F.);
#3870=CARTESIAN_POINT('',(15.0000000000001,-344.,35.));
#3880=DIRECTION('',(-1.82710989195454E-16,1.,0.));
#3890=DIRECTION('',(1.,1.82710989195454E-16,0.));
#3900=AXIS2_PLACEMENT_3D('',#3870,#3880,#3890);
#3910=CYLINDRICAL_SURFACE('',#3900,3.5);
#3920=CARTESIAN_POINT('',(18.5000000000001,-344.,35.));
#3930=DIRECTION('',(-1.82710989195454E-16,1.,0.));
#3940=VECTOR('',#3930,1.);
#3950=LINE('',#3920,#3940);
#3960=EDGE_CURVE('',#1550,#2490,#3950,.T.);
#3970=ORIENTED_EDGE('',*,*,#3960,.F.);
#3980=ORIENTED_EDGE('',*,*,#2540,.T.);
#3990=CARTESIAN_POINT('',(11.5000000000001,-344.,35.));
#4000=DIRECTION('',(-1.82710989195454E-16,1.,0.));
#4010=VECTOR('',#4000,1.);
#4020=LINE('',#3990,#4010);
#4030=EDGE_CURVE('',#1570,#2510,#4020,.T.);
#4040=ORIENTED_EDGE('',*,*,#4030,.T.);
#4050=ORIENTED_EDGE('',*,*,#1600,.F.);
#4060=EDGE_LOOP('',(#4050,#4040,#3980,#3970));
#4070=FACE_OUTER_BOUND('',#4060,.T.);
#4080=ADVANCED_FACE('',(#4070),#3910,.F.);
#4090=CARTESIAN_POINT('',(45.0000000000001,-344.,5.));
#4100=DIRECTION('',(-1.82710989195454E-16,1.,0.));
#4110=DIRECTION('',(1.,1.82710989195454E-16,0.));
#4120=AXIS2_PLACEMENT_3D('',#4090,#4100,#4110);
#4130=CYLINDRICAL_SURFACE('',#4120,3.5);
#4140=CARTESIAN_POINT('',(48.5000000000001,-344.,5.));
#4150=DIRECTION('',(-1.82710989195454E-16,1.,0.));
#4160=VECTOR('',#4150,1.);
#4170=LINE('',#4140,#4160);
#4180=EDGE_CURVE('',#1700,#2640,#4170,.T.);
#4190=ORIENTED_EDGE('',*,*,#4180,.F.);
#4200=ORIENTED_EDGE('',*,*,#2690,.T.);
#4210=CARTESIAN_POINT('',(41.5000000000001,-344.,5.));
#4220=DIRECTION('',(-1.82710989195454E-16,1.,0.));
#4230=VECTOR('',#4220,1.);
#4240=LINE('',#4210,#4230);
#4250=EDGE_CURVE('',#1720,#2660,#4240,.T.);
#4260=ORIENTED_EDGE('',*,*,#4250,.T.);
#4270=ORIENTED_EDGE('',*,*,#1750,.F.);
#4280=EDGE_LOOP('',(#4270,#4260,#4200,#4190));
#4290=FACE_OUTER_BOUND('',#4280,.T.);
#4300=ADVANCED_FACE('',(#4290),#4130,.F.);
#4310=CARTESIAN_POINT('',(45.0000000000001,-344.,35.));
#4320=DIRECTION('',(-1.82710989195454E-16,1.,0.));
#4330=DIRECTION('',(1.,1.82710989195454E-16,0.));
#4340=AXIS2_PLACEMENT_3D('',#4310,#4320,#4330);
#4350=CYLINDRICAL_SURFACE('',#4340,3.5);
#4360=CARTESIAN_POINT('',(48.5000000000001,-344.,35.));
#4370=DIRECTION('',(-1.82710989195454E-16,1.,0.));
#4380=VECTOR('',#4370,1.);
#4390=LINE('',#4360,#4380);
#4400=EDGE_CURVE('',#1850,#2790,#4390,.T.);
#4410=ORIENTED_EDGE('',*,*,#4400,.F.);
#4420=ORIENTED_EDGE('',*,*,#2840,.T.);
#4430=CARTESIAN_POINT('',(41.5000000000001,-344.,35.));
#4440=DIRECTION('',(-1.82710989195454E-16,1.,0.));
#4450=VECTOR('',#4440,1.);
#4460=LINE('',#4430,#4450);
#4470=EDGE_CURVE('',#1870,#2810,#4460,.T.);
#4480=ORIENTED_EDGE('',*,*,#4470,.T.);
#4490=ORIENTED_EDGE('',*,*,#1900,.F.);
#4500=EDGE_LOOP('',(#4490,#4480,#4420,#4410));
#4510=FACE_OUTER_BOUND('',#4500,.T.);
#4520=ADVANCED_FACE('',(#4510),#4350,.F.);
#4530=CARTESIAN_POINT('',(-444.,19.9999999999999,20.));
#4540=DIRECTION('',(1.,1.57898385724467E-16,0.));
#4550=DIRECTION('',(-1.57898385724467E-16,1.,0.));
#4560=AXIS2_PLACEMENT_3D('',#4530,#4540,#4550);
#4570=CYLINDRICAL_SURFACE('',#4560,4.5);
#4580=CARTESIAN_POINT('',(-444.,24.4999999999999,20.));
#4590=DIRECTION('',(1.,1.57898385724467E-16,0.));
#4600=VECTOR('',#4590,1.);
#4610=LINE('',#4580,#4600);
#4620=EDGE_CURVE('',#3550,#3110,#4610,.T.);
#4630=ORIENTED_EDGE('',*,*,#4620,.F.);
#4640=ORIENTED_EDGE('',*,*,#3160,.T.);
#4650=CARTESIAN_POINT('',(-444.,15.4999999999999,20.));
#4660=DIRECTION('',(1.,1.57898385724467E-16,0.));
#4670=VECTOR('',#4660,1.);
#4680=LINE('',#4650,#4670);
#4690=EDGE_CURVE('',#3570,#3130,#4680,.T.);
#4700=ORIENTED_EDGE('',*,*,#4690,.T.);
#4710=ORIENTED_EDGE('',*,*,#3600,.F.);
#4720=EDGE_LOOP('',(#4710,#4700,#4640,#4630));
#4730=FACE_OUTER_BOUND('',#4720,.T.);
#4740=ADVANCED_FACE('',(#4730),#4570,.F.);
#4750=CARTESIAN_POINT('',(15.0000000000001,-344.,5.));
#4760=DIRECTION('',(-1.82710989195454E-16,1.,0.));
#4770=DIRECTION('',(1.,1.82710989195454E-16,0.));
#4780=AXIS2_PLACEMENT_3D('',#4750,#4760,#4770);
#4790=CYLINDRICAL_SURFACE('',#4780,3.5);
#4800=ORIENTED_EDGE('',*,*,#1430,.F.);
#4810=ORIENTED_EDGE('',*,*,#3810,.F.);
#4820=ORIENTED_EDGE('',*,*,#2370,.T.);
#4830=ORIENTED_EDGE('',*,*,#3740,.T.);
#4840=EDGE_LOOP('',(#4830,#4820,#4810,#4800));
#4850=FACE_OUTER_BOUND('',#4840,.T.);
#4860=ADVANCED_FACE('',(#4850),#4790,.F.);
#4870=CARTESIAN_POINT('',(45.0000000000001,-344.,35.));
#4880=DIRECTION('',(-1.82710989195454E-16,1.,0.));
#4890=DIRECTION('',(1.,1.82710989195454E-16,0.));
#4900=AXIS2_PLACEMENT_3D('',#4870,#4880,#4890);
#4910=CYLINDRICAL_SURFACE('',#4900,3.5);
#4920=ORIENTED_EDGE('',*,*,#1880,.F.);
#4930=ORIENTED_EDGE('',*,*,#4470,.F.);
#4940=ORIENTED_EDGE('',*,*,#2820,.T.);
#4950=ORIENTED_EDGE('',*,*,#4400,.T.);
#4960=EDGE_LOOP('',(#4950,#4940,#4930,#4920));
#4970=FACE_OUTER_BOUND('',#4960,.T.);
#4980=ADVANCED_FACE('',(#4970),#4910,.F.);
#4990=CARTESIAN_POINT('',(-444.,19.9999999999999,20.));
#5000=DIRECTION('',(1.,1.57898385724467E-16,0.));
#5010=DIRECTION('',(-1.57898385724467E-16,1.,0.));
#5020=AXIS2_PLACEMENT_3D('',#4990,#5000,#5010);
#5030=CYLINDRICAL_SURFACE('',#5020,4.5);
#5040=ORIENTED_EDGE('',*,*,#3580,.F.);
#5050=ORIENTED_EDGE('',*,*,#4690,.F.);
#5060=ORIENTED_EDGE('',*,*,#3140,.T.);
#5070=ORIENTED_EDGE('',*,*,#4620,.T.);
#5080=EDGE_LOOP('',(#5070,#5060,#5050,#5040));
#5090=FACE_OUTER_BOUND('',#5080,.T.);
#5100=ADVANCED_FACE('',(#5090),#5030,.F.);
#5110=CARTESIAN_POINT('',(15.0000000000001,-344.,35.));
#5120=DIRECTION('',(-1.82710989195454E-16,1.,0.));
#5130=DIRECTION('',(1.,1.82710989195454E-16,0.));
#5140=AXIS2_PLACEMENT_3D('',#5110,#5120,#5130);
#5150=CYLINDRICAL_SURFACE('',#5140,3.5);
#5160=ORIENTED_EDGE('',*,*,#1580,.F.);
#5170=ORIENTED_EDGE('',*,*,#4030,.F.);
#5180=ORIENTED_EDGE('',*,*,#2520,.T.);
#5190=ORIENTED_EDGE('',*,*,#3960,.T.);
#5200=EDGE_LOOP('',(#5190,#5180,#5170,#5160));
#5210=FACE_OUTER_BOUND('',#5200,.T.);
#5220=ADVANCED_FACE('',(#5210),#5150,.F.);
#5230=CARTESIAN_POINT('',(45.0000000000001,-344.,5.));
#5240=DIRECTION('',(-1.82710989195454E-16,1.,0.));
#5250=DIRECTION('',(1.,1.82710989195454E-16,0.));
#5260=AXIS2_PLACEMENT_3D('',#5230,#5240,#5250);
#5270=CYLINDRICAL_SURFACE('',#5260,3.5);
#5280=ORIENTED_EDGE('',*,*,#1730,.F.);
#5290=ORIENTED_EDGE('',*,*,#4250,.F.);
#5300=ORIENTED_EDGE('',*,*,#2670,.T.);
#5310=ORIENTED_EDGE('',*,*,#4180,.T.);
#5320=EDGE_LOOP('',(#5310,#5300,#5290,#5280));
#5330=FACE_OUTER_BOUND('',#5320,.T.);
#5340=ADVANCED_FACE('',(#5330),#5270,.F.);
#5350=CLOSED_SHELL('',(#1940,#2110,#2880,#3200,#3370,#3640,#3860,#4080,
#4300,#4520,#4740,#4860,#4980,#5100,#5220,#5340,#1120,#560));
#5360=MANIFOLD_SOLID_BREP('',#5350);
#5370=CARTESIAN_POINT('',(0.,0.,0.));
#5380=DIRECTION('',(0.,0.,1.));
#5390=DIRECTION('',(1.,0.,0.));
#5400=AXIS2_PLACEMENT_3D('',#5370,#5380,#5390);
#5410=APPLICATION_CONTEXT(' ');
#5420=APPLICATION_PROTOCOL_DEFINITION(' ','automotive_design',1998,#5410
);
#5430=PRODUCT_CONTEXT('',#5410,'mechanical');
#5440=PRODUCT_DEFINITION_CONTEXT('part definition',#5410,'design');
#5450=PRODUCT('Abschlusswinkel-MMS-44_50x40x40x6_44.0390_PX175594',
'Abschlusswinkel-MMS-44_50x40x40x6_44.0390_PX175594','',(#5430));
#5460=PRODUCT_RELATED_PRODUCT_CATEGORY('part',' ',(#5450));
#5470=PRODUCT_DEFINITION_FORMATION_WITH_SPECIFIED_SOURCE('','',#5450,
.BOUGHT.);
#5480=PRODUCT_DEFINITION('',' ',#5470,#5440);
#5490=PRODUCT_DEFINITION_SHAPE('','',#5480);
#5500=DIMENSIONAL_EXPONENTS(1.,0.,0.,0.,0.,0.,0.);
#5510=DIMENSIONAL_EXPONENTS(0.,0.,0.,0.,0.,0.,0.);
#5520=DIMENSIONAL_EXPONENTS(0.,0.,0.,0.,0.,0.,0.);
#5530=(LENGTH_UNIT() NAMED_UNIT(*) SI_UNIT(.MILLI.,.METRE.));
#5540=(NAMED_UNIT(*) PLANE_ANGLE_UNIT() SI_UNIT($,.RADIAN.));
#5550=(NAMED_UNIT(*) SI_UNIT($,.STERADIAN.) SOLID_ANGLE_UNIT());
#5560=(GEOMETRIC_REPRESENTATION_CONTEXT(3) 
GLOBAL_UNCERTAINTY_ASSIGNED_CONTEXT((#5570)) 
GLOBAL_UNIT_ASSIGNED_CONTEXT((#5530,#5540,#5550)) REPRESENTATION_CONTEXT
('',''));
#5570=UNCERTAINTY_MEASURE_WITH_UNIT(LENGTH_MEASURE(1.E-6),#5530,
'distance_accuracy_value','maximum gap value');
#5580=ADVANCED_BREP_SHAPE_REPRESENTATION('',(#5400,#5360),#5560);
#5590=SHAPE_DEFINITION_REPRESENTATION(#5490,#5580);
#5600=COLOUR_RGB('',0.690196096897125,0.886274576187134,1.);
#5610=FILL_AREA_STYLE_COLOUR('',#5600);
#5620=FILL_AREA_STYLE('',(#5610));
#5630=SURFACE_STYLE_FILL_AREA(#5620);
#5640=SURFACE_SIDE_STYLE('',(#5630));
#5650=SURFACE_STYLE_USAGE(.BOTH.,#5640);
#5660=PRESENTATION_STYLE_ASSIGNMENT((#5650));
#5670=STYLED_ITEM('',(#5660),#5360);
#5680=DRAUGHTING_MODEL('',(#5670),#5560);
#5690=CARTESIAN_POINT('',(523.344296417562,25.8952824748349,
50.0000000000003));
#5700=DIRECTION('',(0.173648177666931,0.984807753012208,
1.49186218934005E-16));
#5710=DIRECTION('',(5.6095803115854E-17,-1.61378860426037E-16,1.));
#5720=AXIS2_PLACEMENT_3D('',#5690,#5700,#5710);
#5730=ITEM_DEFINED_TRANSFORMATION(
'Abschlusswinkel-MMS-44_50x40x40x6_44.0390_PX175594','',#5400,#5720);
#5740=APPLICATION_CONTEXT(' ');
#5750=APPLICATION_PROTOCOL_DEFINITION(' ','automotive_design',1998,#5740
);
#5760=PRODUCT_CONTEXT('',#5740,'mechanical');
#5770=PRODUCT_DEFINITION_CONTEXT('part definition',#5740,'design');
#5780=PRODUCT('Abschlusswinkel-MMS-44_50x40x40x6_44.0390_PX175594',
'Abschlusswinkel-MMS-44_50x40x40x6_44.0390_PX175594','',(#5760));
#5790=PRODUCT_RELATED_PRODUCT_CATEGORY('part',' ',(#5780));
#5800=PRODUCT_DEFINITION_FORMATION_WITH_SPECIFIED_SOURCE('','',#5780,
.BOUGHT.);
#5810=PRODUCT_DEFINITION('',' ',#5800,#5770);
#5820=PRODUCT_DEFINITION_SHAPE('','',#5810);
#5830=DIMENSIONAL_EXPONENTS(1.,0.,0.,0.,0.,0.,0.);
#5840=DIMENSIONAL_EXPONENTS(0.,0.,0.,0.,0.,0.,0.);
#5850=DIMENSIONAL_EXPONENTS(0.,0.,0.,0.,0.,0.,0.);
#5860=(LENGTH_UNIT() NAMED_UNIT(*) SI_UNIT(.MILLI.,.METRE.));
#5870=(NAMED_UNIT(*) PLANE_ANGLE_UNIT() SI_UNIT($,.RADIAN.));
#5880=(NAMED_UNIT(*) SI_UNIT($,.STERADIAN.) SOLID_ANGLE_UNIT());
#5890=(GEOMETRIC_REPRESENTATION_CONTEXT(3) 
GLOBAL_UNCERTAINTY_ASSIGNED_CONTEXT((#5900)) 
GLOBAL_UNIT_ASSIGNED_CONTEXT((#5860,#5870,#5880)) REPRESENTATION_CONTEXT
('',''));
#5900=UNCERTAINTY_MEASURE_WITH_UNIT(LENGTH_MEASURE(1.E-6),#5860,
'distance_accuracy_value','maximum gap value');
#5910=SHAPE_REPRESENTATION('',(#5400,#5720),#5890);
#5920=SHAPE_DEFINITION_REPRESENTATION(#5820,#5910);
#5930=(REPRESENTATION_RELATIONSHIP('','',#5580,#5910) 
REPRESENTATION_RELATIONSHIP_WITH_TRANSFORMATION(#5730) 
SHAPE_REPRESENTATION_RELATIONSHIP());
#5940=NEXT_ASSEMBLY_USAGE_OCCURRENCE('1','',
'Abschlusswinkel-MMS-44_50x40x40x6_44.0390_PX175594',#5810,#5480,'');
#5950=PRODUCT_DEFINITION_SHAPE('','',#5940);
#5960=CONTEXT_DEPENDENT_SHAPE_REPRESENTATION(#5930,#5950);
ENDSEC;
END-ISO-10303-21;
