ISO-10303-21;
HEADER;
FILE_DESCRIPTION(('Creo Elements/Direct Modeling STEP Export'),'2;1');
FILE_NAME(
'//KR-CAD2/PhoenixTemp/karl.letzgus/Konvertierung/55.0060_Vierkantnutens
tein-MMS-55_M6.stp','2022-03-21T 8:06:18',(''),(''),
'PTC Creo Elements/Direct Modeling STEP processor for AP214 (Solid Model
)',
'PTC Creo Elements/Direct Modeling 19.0C  15-Aug-2015 (C) Parametric Tec
hnology GmbH','');
FILE_SCHEMA(('AUTOMOTIVE_DESIGN { 1 0 10303 214 1 1 1 1 }'));
ENDSEC;
DATA;
#10=CARTESIAN_POINT('',(0.,0.,0.));
#20=DIRECTION('',(0.,0.,1.));
#30=DIRECTION('',(1.,0.,0.));
#40=AXIS2_PLACEMENT_3D('',#10,#20,#30);
#50=PLANE('',#40);
#60=CARTESIAN_POINT('',(10.,10.,0.));
#70=DIRECTION('',(0.,0.,-1.));
#80=DIRECTION('',(-1.,0.,0.));
#90=AXIS2_PLACEMENT_3D('',#60,#70,#80);
#100=CIRCLE('',#90,3.);
#110=CARTESIAN_POINT('',(7.,10.,-5.55111512312578E-17));
#120=VERTEX_POINT('',#110);
#130=CARTESIAN_POINT('',(13.,10.,-5.55111512312578E-17));
#140=VERTEX_POINT('',#130);
#150=EDGE_CURVE('',#120,#140,#100,.T.);
#160=ORIENTED_EDGE('',*,*,#150,.F.);
#170=EDGE_CURVE('',#140,#120,#100,.T.);
#180=ORIENTED_EDGE('',*,*,#170,.F.);
#190=EDGE_LOOP('',(#180,#160));
#200=FACE_BOUND('',#190,.T.);
#210=CARTESIAN_POINT('',(0.,20.,0.));
#220=DIRECTION('',(0.,-1.,0.));
#230=VECTOR('',#220,1.);
#240=LINE('',#210,#230);
#250=CARTESIAN_POINT('',(0.,20.,0.));
#260=VERTEX_POINT('',#250);
#270=CARTESIAN_POINT('',(0.,0.,0.));
#280=VERTEX_POINT('',#270);
#290=EDGE_CURVE('',#260,#280,#240,.T.);
#300=ORIENTED_EDGE('',*,*,#290,.F.);
#310=CARTESIAN_POINT('',(0.,0.,0.));
#320=DIRECTION('',(1.,0.,0.));
#330=VECTOR('',#320,1.);
#340=LINE('',#310,#330);
#350=CARTESIAN_POINT('',(20.,0.,0.));
#360=VERTEX_POINT('',#350);
#370=EDGE_CURVE('',#280,#360,#340,.T.);
#380=ORIENTED_EDGE('',*,*,#370,.F.);
#390=CARTESIAN_POINT('',(20.,0.,0.));
#400=DIRECTION('',(0.,1.,0.));
#410=VECTOR('',#400,1.);
#420=LINE('',#390,#410);
#430=CARTESIAN_POINT('',(20.,20.,0.));
#440=VERTEX_POINT('',#430);
#450=EDGE_CURVE('',#360,#440,#420,.T.);
#460=ORIENTED_EDGE('',*,*,#450,.F.);
#470=CARTESIAN_POINT('',(20.,20.,0.));
#480=DIRECTION('',(-1.,0.,0.));
#490=VECTOR('',#480,1.);
#500=LINE('',#470,#490);
#510=EDGE_CURVE('',#440,#260,#500,.T.);
#520=ORIENTED_EDGE('',*,*,#510,.F.);
#530=EDGE_LOOP('',(#520,#460,#380,#300));
#540=FACE_OUTER_BOUND('',#530,.T.);
#550=ADVANCED_FACE('',(#200,#540),#50,.F.);
#560=CARTESIAN_POINT('',(0.,0.,6.8));
#570=DIRECTION('',(0.,0.,1.));
#580=DIRECTION('',(1.,0.,0.));
#590=AXIS2_PLACEMENT_3D('',#560,#570,#580);
#600=PLANE('',#590);
#610=CARTESIAN_POINT('',(20.,20.,6.8));
#620=DIRECTION('',(-1.,0.,0.));
#630=VECTOR('',#620,1.);
#640=LINE('',#610,#630);
#650=CARTESIAN_POINT('',(20.,20.,6.8));
#660=VERTEX_POINT('',#650);
#670=CARTESIAN_POINT('',(0.,20.,6.8));
#680=VERTEX_POINT('',#670);
#690=EDGE_CURVE('',#660,#680,#640,.T.);
#700=ORIENTED_EDGE('',*,*,#690,.T.);
#710=CARTESIAN_POINT('',(20.,0.,6.8));
#720=DIRECTION('',(0.,1.,0.));
#730=VECTOR('',#720,1.);
#740=LINE('',#710,#730);
#750=CARTESIAN_POINT('',(20.,0.,6.8));
#760=VERTEX_POINT('',#750);
#770=EDGE_CURVE('',#760,#660,#740,.T.);
#780=ORIENTED_EDGE('',*,*,#770,.T.);
#790=CARTESIAN_POINT('',(0.,0.,6.8));
#800=DIRECTION('',(1.,0.,0.));
#810=VECTOR('',#800,1.);
#820=LINE('',#790,#810);
#830=CARTESIAN_POINT('',(0.,0.,6.8));
#840=VERTEX_POINT('',#830);
#850=EDGE_CURVE('',#840,#760,#820,.T.);
#860=ORIENTED_EDGE('',*,*,#850,.T.);
#870=CARTESIAN_POINT('',(0.,20.,6.8));
#880=DIRECTION('',(0.,-1.,0.));
#890=VECTOR('',#880,1.);
#900=LINE('',#870,#890);
#910=EDGE_CURVE('',#680,#840,#900,.T.);
#920=ORIENTED_EDGE('',*,*,#910,.T.);
#930=EDGE_LOOP('',(#920,#860,#780,#700));
#940=FACE_OUTER_BOUND('',#930,.T.);
#950=CARTESIAN_POINT('',(10.,10.,6.8));
#960=DIRECTION('',(0.,0.,1.));
#970=DIRECTION('',(1.,0.,0.));
#980=AXIS2_PLACEMENT_3D('',#950,#960,#970);
#990=CIRCLE('',#980,5.);
#1000=CARTESIAN_POINT('',(15.,10.,6.8));
#1010=VERTEX_POINT('',#1000);
#1020=CARTESIAN_POINT('',(5.,10.,6.8));
#1030=VERTEX_POINT('',#1020);
#1040=EDGE_CURVE('',#1010,#1030,#990,.T.);
#1050=ORIENTED_EDGE('',*,*,#1040,.F.);
#1060=EDGE_CURVE('',#1030,#1010,#990,.T.);
#1070=ORIENTED_EDGE('',*,*,#1060,.F.);
#1080=EDGE_LOOP('',(#1070,#1050));
#1090=FACE_BOUND('',#1080,.T.);
#1100=ADVANCED_FACE('',(#940,#1090),#600,.T.);
#1110=CARTESIAN_POINT('',(10.,10.,9.8));
#1120=DIRECTION('',(0.,0.,1.));
#1130=DIRECTION('',(1.,0.,0.));
#1140=AXIS2_PLACEMENT_3D('',#1110,#1120,#1130);
#1150=PLANE('',#1140);
#1160=CARTESIAN_POINT('',(10.,10.,9.8));
#1170=DIRECTION('',(0.,0.,-1.));
#1180=DIRECTION('',(-1.,0.,0.));
#1190=AXIS2_PLACEMENT_3D('',#1160,#1170,#1180);
#1200=CIRCLE('',#1190,2.99999976687494);
#1210=CARTESIAN_POINT('',(7.00000023312506,10.,9.8));
#1220=VERTEX_POINT('',#1210);
#1230=CARTESIAN_POINT('',(12.9999997668749,10.,9.8));
#1240=VERTEX_POINT('',#1230);
#1250=EDGE_CURVE('',#1220,#1240,#1200,.T.);
#1260=ORIENTED_EDGE('',*,*,#1250,.T.);
#1270=EDGE_CURVE('',#1240,#1220,#1200,.T.);
#1280=ORIENTED_EDGE('',*,*,#1270,.T.);
#1290=EDGE_LOOP('',(#1280,#1260));
#1300=FACE_BOUND('',#1290,.T.);
#1310=CARTESIAN_POINT('',(10.,10.,9.8));
#1320=DIRECTION('',(0.,0.,1.));
#1330=DIRECTION('',(1.,0.,0.));
#1340=AXIS2_PLACEMENT_3D('',#1310,#1320,#1330);
#1350=CIRCLE('',#1340,5.);
#1360=CARTESIAN_POINT('',(15.,10.,9.8));
#1370=VERTEX_POINT('',#1360);
#1380=CARTESIAN_POINT('',(5.,10.,9.8));
#1390=VERTEX_POINT('',#1380);
#1400=EDGE_CURVE('',#1370,#1390,#1350,.T.);
#1410=ORIENTED_EDGE('',*,*,#1400,.T.);
#1420=EDGE_CURVE('',#1390,#1370,#1350,.T.);
#1430=ORIENTED_EDGE('',*,*,#1420,.T.);
#1440=EDGE_LOOP('',(#1430,#1410));
#1450=FACE_OUTER_BOUND('',#1440,.T.);
#1460=ADVANCED_FACE('',(#1300,#1450),#1150,.T.);
#1470=CARTESIAN_POINT('',(10.,10.,6.8));
#1480=DIRECTION('',(0.,0.,1.));
#1490=DIRECTION('',(1.,0.,0.));
#1500=AXIS2_PLACEMENT_3D('',#1470,#1480,#1490);
#1510=CYLINDRICAL_SURFACE('',#1500,5.);
#1520=CARTESIAN_POINT('',(15.,10.,6.8));
#1530=DIRECTION('',(0.,0.,1.));
#1540=VECTOR('',#1530,1.);
#1550=LINE('',#1520,#1540);
#1560=EDGE_CURVE('',#1010,#1370,#1550,.T.);
#1570=ORIENTED_EDGE('',*,*,#1560,.T.);
#1580=ORIENTED_EDGE('',*,*,#1060,.T.);
#1590=CARTESIAN_POINT('',(5.,10.,6.8));
#1600=DIRECTION('',(0.,0.,1.));
#1610=VECTOR('',#1600,1.);
#1620=LINE('',#1590,#1610);
#1630=EDGE_CURVE('',#1030,#1390,#1620,.T.);
#1640=ORIENTED_EDGE('',*,*,#1630,.F.);
#1650=ORIENTED_EDGE('',*,*,#1420,.F.);
#1660=EDGE_LOOP('',(#1650,#1640,#1580,#1570));
#1670=FACE_OUTER_BOUND('',#1660,.T.);
#1680=ADVANCED_FACE('',(#1670),#1510,.T.);
#1690=CARTESIAN_POINT('',(10.,10.,0.));
#1700=DIRECTION('',(0.,0.,-1.));
#1710=DIRECTION('',(-1.,0.,0.));
#1720=AXIS2_PLACEMENT_3D('',#1690,#1700,#1710);
#1730=CYLINDRICAL_SURFACE('',#1720,2.5);
#1740=CARTESIAN_POINT('',(12.5,10.,0.));
#1750=DIRECTION('',(0.,0.,-1.));
#1760=VECTOR('',#1750,1.);
#1770=LINE('',#1740,#1760);
#1780=CARTESIAN_POINT('',(12.5,10.,9.511325));
#1790=VERTEX_POINT('',#1780);
#1800=CARTESIAN_POINT('',(12.5,10.,0.288675134594813));
#1810=VERTEX_POINT('',#1800);
#1820=EDGE_CURVE('',#1790,#1810,#1770,.T.);
#1830=ORIENTED_EDGE('',*,*,#1820,.T.);
#1840=CARTESIAN_POINT('',(10.,10.,9.511325));
#1850=DIRECTION('',(0.,0.,-1.));
#1860=DIRECTION('',(-1.,0.,0.));
#1870=AXIS2_PLACEMENT_3D('',#1840,#1850,#1860);
#1880=CIRCLE('',#1870,2.5);
#1890=CARTESIAN_POINT('',(7.5,10.,9.511325));
#1900=VERTEX_POINT('',#1890);
#1910=EDGE_CURVE('',#1790,#1900,#1880,.T.);
#1920=ORIENTED_EDGE('',*,*,#1910,.F.);
#1930=CARTESIAN_POINT('',(7.5,10.,0.));
#1940=DIRECTION('',(0.,0.,-1.));
#1950=VECTOR('',#1940,1.);
#1960=LINE('',#1930,#1950);
#1970=CARTESIAN_POINT('',(7.5,10.,0.288675134594813));
#1980=VERTEX_POINT('',#1970);
#1990=EDGE_CURVE('',#1900,#1980,#1960,.T.);
#2000=ORIENTED_EDGE('',*,*,#1990,.F.);
#2010=CARTESIAN_POINT('',(10.,10.,0.288675134594813));
#2020=DIRECTION('',(0.,0.,-1.));
#2030=DIRECTION('',(-1.,0.,0.));
#2040=AXIS2_PLACEMENT_3D('',#2010,#2020,#2030);
#2050=CIRCLE('',#2040,2.5);
#2060=EDGE_CURVE('',#1810,#1980,#2050,.T.);
#2070=ORIENTED_EDGE('',*,*,#2060,.T.);
#2080=EDGE_LOOP('',(#2070,#2000,#1920,#1830));
#2090=FACE_OUTER_BOUND('',#2080,.T.);
#2100=ADVANCED_FACE('M6x1_1211074',(#2090),#1730,.F.);
#2110=COLOUR_RGB('',1.,0.,0.);
#2120=FILL_AREA_STYLE_COLOUR('',#2110);
#2130=FILL_AREA_STYLE('',(#2120));
#2140=SURFACE_STYLE_FILL_AREA(#2130);
#2150=SURFACE_SIDE_STYLE('',(#2140));
#2160=SURFACE_STYLE_USAGE(.BOTH.,#2150);
#2170=PRESENTATION_STYLE_ASSIGNMENT((#2160));
#2180=CARTESIAN_POINT('',(10.,10.,0.288675134594813));
#2190=DIRECTION('',(0.,0.,-1.));
#2200=DIRECTION('',(-1.,0.,0.));
#2210=AXIS2_PLACEMENT_3D('',#2180,#2190,#2200);
#2220=CONICAL_SURFACE('',#2210,2.5,1.0471975511966);
#2230=CARTESIAN_POINT('',(7.5,10.,0.288675134594813));
#2240=DIRECTION('',(-0.866025403784439,0.,-0.5));
#2250=VECTOR('',#2240,2.88675134594813);
#2260=LINE('',#2230,#2250);
#2270=EDGE_CURVE('',#1980,#120,#2260,.T.);
#2280=ORIENTED_EDGE('',*,*,#2270,.F.);
#2290=ORIENTED_EDGE('',*,*,#170,.T.);
#2300=CARTESIAN_POINT('',(12.5,10.,0.288675134594813));
#2310=DIRECTION('',(0.866025403784439,0.,-0.5));
#2320=VECTOR('',#2310,2.88675134594813);
#2330=LINE('',#2300,#2320);
#2340=EDGE_CURVE('',#1810,#140,#2330,.T.);
#2350=ORIENTED_EDGE('',*,*,#2340,.T.);
#2360=ORIENTED_EDGE('',*,*,#2060,.F.);
#2370=EDGE_LOOP('',(#2360,#2350,#2290,#2280));
#2380=FACE_OUTER_BOUND('',#2370,.T.);
#2390=ADVANCED_FACE('',(#2380),#2220,.F.);
#2400=CARTESIAN_POINT('',(10.,10.,9.511325));
#2410=DIRECTION('',(0.,0.,1.));
#2420=DIRECTION('',(1.,0.,0.));
#2430=AXIS2_PLACEMENT_3D('',#2400,#2410,#2420);
#2440=CONICAL_SURFACE('',#2430,2.5,1.0471975511966);
#2450=CARTESIAN_POINT('',(12.5,10.,9.511325));
#2460=DIRECTION('',(0.866025403784439,0.,0.5));
#2470=VECTOR('',#2460,2.88675134594813);
#2480=LINE('',#2450,#2470);
#2490=EDGE_CURVE('',#1790,#1240,#2480,.T.);
#2500=ORIENTED_EDGE('',*,*,#2490,.F.);
#2510=ORIENTED_EDGE('',*,*,#1270,.F.);
#2520=CARTESIAN_POINT('',(7.5,10.,9.511325));
#2530=DIRECTION('',(-0.866025403784439,0.,0.5));
#2540=VECTOR('',#2530,2.88675134594813);
#2550=LINE('',#2520,#2540);
#2560=EDGE_CURVE('',#1900,#1220,#2550,.T.);
#2570=ORIENTED_EDGE('',*,*,#2560,.T.);
#2580=ORIENTED_EDGE('',*,*,#1910,.T.);
#2590=EDGE_LOOP('',(#2580,#2570,#2510,#2500));
#2600=FACE_OUTER_BOUND('',#2590,.T.);
#2610=ADVANCED_FACE('',(#2600),#2440,.F.);
#2620=CARTESIAN_POINT('',(10.,10.,9.511325));
#2630=DIRECTION('',(0.,0.,1.));
#2640=DIRECTION('',(1.,0.,0.));
#2650=AXIS2_PLACEMENT_3D('',#2620,#2630,#2640);
#2660=CONICAL_SURFACE('',#2650,2.5,1.0471975511966);
#2670=EDGE_CURVE('',#1900,#1790,#1880,.T.);
#2680=ORIENTED_EDGE('',*,*,#2670,.T.);
#2690=ORIENTED_EDGE('',*,*,#2560,.F.);
#2700=ORIENTED_EDGE('',*,*,#1250,.F.);
#2710=ORIENTED_EDGE('',*,*,#2490,.T.);
#2720=EDGE_LOOP('',(#2710,#2700,#2690,#2680));
#2730=FACE_OUTER_BOUND('',#2720,.T.);
#2740=ADVANCED_FACE('',(#2730),#2660,.F.);
#2750=CARTESIAN_POINT('',(10.,10.,0.));
#2760=DIRECTION('',(0.,0.,-1.));
#2770=DIRECTION('',(-1.,0.,0.));
#2780=AXIS2_PLACEMENT_3D('',#2750,#2760,#2770);
#2790=CYLINDRICAL_SURFACE('',#2780,2.5);
#2800=ORIENTED_EDGE('',*,*,#2670,.F.);
#2810=ORIENTED_EDGE('',*,*,#1820,.F.);
#2820=EDGE_CURVE('',#1980,#1810,#2050,.T.);
#2830=ORIENTED_EDGE('',*,*,#2820,.T.);
#2840=ORIENTED_EDGE('',*,*,#1990,.T.);
#2850=EDGE_LOOP('',(#2840,#2830,#2810,#2800));
#2860=FACE_OUTER_BOUND('',#2850,.T.);
#2870=ADVANCED_FACE('',(#2860),#2790,.F.);
#2880=COLOUR_RGB('',1.,0.,0.);
#2890=FILL_AREA_STYLE_COLOUR('',#2880);
#2900=FILL_AREA_STYLE('',(#2890));
#2910=SURFACE_STYLE_FILL_AREA(#2900);
#2920=SURFACE_SIDE_STYLE('',(#2910));
#2930=SURFACE_STYLE_USAGE(.BOTH.,#2920);
#2940=PRESENTATION_STYLE_ASSIGNMENT((#2930));
#2950=CARTESIAN_POINT('',(10.,10.,0.288675134594813));
#2960=DIRECTION('',(0.,0.,-1.));
#2970=DIRECTION('',(-1.,0.,0.));
#2980=AXIS2_PLACEMENT_3D('',#2950,#2960,#2970);
#2990=CONICAL_SURFACE('',#2980,2.5,1.0471975511966);
#3000=ORIENTED_EDGE('',*,*,#2820,.F.);
#3010=ORIENTED_EDGE('',*,*,#2340,.F.);
#3020=ORIENTED_EDGE('',*,*,#150,.T.);
#3030=ORIENTED_EDGE('',*,*,#2270,.T.);
#3040=EDGE_LOOP('',(#3030,#3020,#3010,#3000));
#3050=FACE_OUTER_BOUND('',#3040,.T.);
#3060=ADVANCED_FACE('',(#3050),#2990,.F.);
#3070=CARTESIAN_POINT('',(10.,10.,6.8));
#3080=DIRECTION('',(0.,0.,1.));
#3090=DIRECTION('',(1.,0.,0.));
#3100=AXIS2_PLACEMENT_3D('',#3070,#3080,#3090);
#3110=CYLINDRICAL_SURFACE('',#3100,5.);
#3120=ORIENTED_EDGE('',*,*,#1400,.F.);
#3130=ORIENTED_EDGE('',*,*,#1630,.T.);
#3140=ORIENTED_EDGE('',*,*,#1040,.T.);
#3150=ORIENTED_EDGE('',*,*,#1560,.F.);
#3160=EDGE_LOOP('',(#3150,#3140,#3130,#3120));
#3170=FACE_OUTER_BOUND('',#3160,.T.);
#3180=ADVANCED_FACE('',(#3170),#3110,.T.);
#3190=CARTESIAN_POINT('',(0.,0.,0.));
#3200=DIRECTION('',(-1.,0.,0.));
#3210=DIRECTION('',(0.,1.,0.));
#3220=AXIS2_PLACEMENT_3D('',#3190,#3200,#3210);
#3230=PLANE('',#3220);
#3240=CARTESIAN_POINT('',(0.,20.,0.));
#3250=DIRECTION('',(0.,0.,1.));
#3260=VECTOR('',#3250,1.);
#3270=LINE('',#3240,#3260);
#3280=EDGE_CURVE('',#260,#680,#3270,.T.);
#3290=ORIENTED_EDGE('',*,*,#3280,.F.);
#3300=ORIENTED_EDGE('',*,*,#910,.F.);
#3310=CARTESIAN_POINT('',(0.,0.,0.));
#3320=DIRECTION('',(0.,0.,1.));
#3330=VECTOR('',#3320,1.);
#3340=LINE('',#3310,#3330);
#3350=EDGE_CURVE('',#280,#840,#3340,.T.);
#3360=ORIENTED_EDGE('',*,*,#3350,.T.);
#3370=ORIENTED_EDGE('',*,*,#290,.T.);
#3380=EDGE_LOOP('',(#3370,#3360,#3300,#3290));
#3390=FACE_OUTER_BOUND('',#3380,.T.);
#3400=ADVANCED_FACE('',(#3390),#3230,.T.);
#3410=CARTESIAN_POINT('',(20.,0.,0.));
#3420=DIRECTION('',(-0.,-1.,-0.));
#3430=DIRECTION('',(-1.,0.,0.));
#3440=AXIS2_PLACEMENT_3D('',#3410,#3420,#3430);
#3450=PLANE('',#3440);
#3460=ORIENTED_EDGE('',*,*,#3350,.F.);
#3470=ORIENTED_EDGE('',*,*,#850,.F.);
#3480=CARTESIAN_POINT('',(20.,0.,0.));
#3490=DIRECTION('',(0.,0.,1.));
#3500=VECTOR('',#3490,1.);
#3510=LINE('',#3480,#3500);
#3520=EDGE_CURVE('',#360,#760,#3510,.T.);
#3530=ORIENTED_EDGE('',*,*,#3520,.T.);
#3540=ORIENTED_EDGE('',*,*,#370,.T.);
#3550=EDGE_LOOP('',(#3540,#3530,#3470,#3460));
#3560=FACE_OUTER_BOUND('',#3550,.T.);
#3570=ADVANCED_FACE('',(#3560),#3450,.T.);
#3580=CARTESIAN_POINT('',(20.,20.,0.));
#3590=DIRECTION('',(1.,0.,0.));
#3600=DIRECTION('',(0.,-1.,0.));
#3610=AXIS2_PLACEMENT_3D('',#3580,#3590,#3600);
#3620=PLANE('',#3610);
#3630=ORIENTED_EDGE('',*,*,#3520,.F.);
#3640=ORIENTED_EDGE('',*,*,#770,.F.);
#3650=CARTESIAN_POINT('',(20.,20.,0.));
#3660=DIRECTION('',(0.,0.,1.));
#3670=VECTOR('',#3660,1.);
#3680=LINE('',#3650,#3670);
#3690=EDGE_CURVE('',#440,#660,#3680,.T.);
#3700=ORIENTED_EDGE('',*,*,#3690,.T.);
#3710=ORIENTED_EDGE('',*,*,#450,.T.);
#3720=EDGE_LOOP('',(#3710,#3700,#3640,#3630));
#3730=FACE_OUTER_BOUND('',#3720,.T.);
#3740=ADVANCED_FACE('',(#3730),#3620,.T.);
#3750=CARTESIAN_POINT('',(0.,20.,0.));
#3760=DIRECTION('',(-0.,1.,0.));
#3770=DIRECTION('',(1.,0.,0.));
#3780=AXIS2_PLACEMENT_3D('',#3750,#3760,#3770);
#3790=PLANE('',#3780);
#3800=ORIENTED_EDGE('',*,*,#3690,.F.);
#3810=ORIENTED_EDGE('',*,*,#690,.F.);
#3820=ORIENTED_EDGE('',*,*,#3280,.T.);
#3830=ORIENTED_EDGE('',*,*,#510,.T.);
#3840=EDGE_LOOP('',(#3830,#3820,#3810,#3800));
#3850=FACE_OUTER_BOUND('',#3840,.T.);
#3860=ADVANCED_FACE('',(#3850),#3790,.T.);
#3870=CLOSED_SHELL('',(#3400,#3570,#3740,#3860,#1100,#1460,#1680,#2100,
#2390,#2610,#2740,#2870,#3060,#3180,#550));
#3880=MANIFOLD_SOLID_BREP('',#3870);
#3890=CARTESIAN_POINT('',(0.,0.,0.));
#3900=DIRECTION('',(0.,0.,1.));
#3910=DIRECTION('',(1.,0.,0.));
#3920=AXIS2_PLACEMENT_3D('',#3890,#3900,#3910);
#3930=APPLICATION_CONTEXT(' ');
#3940=APPLICATION_PROTOCOL_DEFINITION(' ','automotive_design',1998,#3930
);
#3950=PRODUCT_CONTEXT('',#3930,'mechanical');
#3960=PRODUCT_DEFINITION_CONTEXT('part definition',#3930,'design');
#3970=PRODUCT('Vierkantnutenstein-MMS-55_M6_55.0060_PX175957',
'Vierkantnutenstein-MMS-55_M6_55.0060_PX175957','',(#3950));
#3980=PRODUCT_RELATED_PRODUCT_CATEGORY('part',' ',(#3970));
#3990=PRODUCT_DEFINITION_FORMATION_WITH_SPECIFIED_SOURCE('','',#3970,
.BOUGHT.);
#4000=PRODUCT_DEFINITION('',' ',#3990,#3960);
#4010=PRODUCT_DEFINITION_SHAPE('','',#4000);
#4020=DIMENSIONAL_EXPONENTS(1.,0.,0.,0.,0.,0.,0.);
#4030=DIMENSIONAL_EXPONENTS(0.,0.,0.,0.,0.,0.,0.);
#4040=DIMENSIONAL_EXPONENTS(0.,0.,0.,0.,0.,0.,0.);
#4050=(LENGTH_UNIT() NAMED_UNIT(*) SI_UNIT(.MILLI.,.METRE.));
#4060=(NAMED_UNIT(*) PLANE_ANGLE_UNIT() SI_UNIT($,.RADIAN.));
#4070=(NAMED_UNIT(*) SI_UNIT($,.STERADIAN.) SOLID_ANGLE_UNIT());
#4080=(GEOMETRIC_REPRESENTATION_CONTEXT(3) 
GLOBAL_UNCERTAINTY_ASSIGNED_CONTEXT((#4090)) 
GLOBAL_UNIT_ASSIGNED_CONTEXT((#4050,#4060,#4070)) REPRESENTATION_CONTEXT
('',''));
#4090=UNCERTAINTY_MEASURE_WITH_UNIT(LENGTH_MEASURE(1.E-6),#4050,
'distance_accuracy_value','maximum gap value');
#4100=ADVANCED_BREP_SHAPE_REPRESENTATION('',(#3920,#3880),#4080);
#4110=SHAPE_DEFINITION_REPRESENTATION(#4010,#4100);
#4120=COLOUR_RGB('',0.690196096897125,0.886274576187134,1.);
#4130=FILL_AREA_STYLE_COLOUR('',#4120);
#4140=FILL_AREA_STYLE('',(#4130));
#4150=SURFACE_STYLE_FILL_AREA(#4140);
#4160=SURFACE_SIDE_STYLE('',(#4150));
#4170=SURFACE_STYLE_USAGE(.BOTH.,#4160);
#4180=PRESENTATION_STYLE_ASSIGNMENT((#4170));
#4190=STYLED_ITEM('',(#4180),#3880);
#4200=OVER_RIDING_STYLED_ITEM('',(#2170),#2100,#4190);
#4210=OVER_RIDING_STYLED_ITEM('',(#2940),#2870,#4190);
#4220=DRAUGHTING_MODEL('',(#4190,#4200,#4210),#4080);
ENDSEC;
END-ISO-10303-21;
