ISO-10303-21;
HEADER;
FILE_DESCRIPTION(('Creo Elements/Direct Modeling STEP Export'),'2;1');
FILE_NAME(
'//KR-CAD2/PhoenixTemp/karl.letzgus/Konvertierung/55.0185.2_Verbindungsl
asche-MMS-55_3mm-schwarz.stp','2022-03-21T 8:06:58',(''),(''),
'PTC Creo Elements/Direct Modeling STEP processor for AP214 (Solid Model
)',
'PTC Creo Elements/Direct Modeling 19.0C  15-Aug-2015 (C) Parametric Tec
hnology GmbH','');
FILE_SCHEMA(('AUTOMOTIVE_DESIGN { 1 0 10303 214 1 1 1 1 }'));
ENDSEC;
DATA;
#10=CARTESIAN_POINT('',(50.,0.0300000000000038,25.));
#20=DIRECTION('',(0.,-1.,0.));
#30=DIRECTION('',(-1.,0.,0.));
#40=AXIS2_PLACEMENT_3D('',#10,#20,#30);
#50=CYLINDRICAL_SURFACE('',#40,4.5);
#60=CARTESIAN_POINT('',(45.5,0.0300000000000038,25.));
#70=DIRECTION('',(0.,-1.,0.));
#80=VECTOR('',#70,1.);
#90=LINE('',#60,#80);
#100=CARTESIAN_POINT('',(45.5,-7.94503351997378E-16,25.));
#110=VERTEX_POINT('',#100);
#120=CARTESIAN_POINT('',(45.5,-3.,25.));
#130=VERTEX_POINT('',#120);
#140=EDGE_CURVE('',#110,#130,#90,.T.);
#150=ORIENTED_EDGE('',*,*,#140,.F.);
#160=CARTESIAN_POINT('',(50.,-3.,25.));
#170=DIRECTION('',(0.,1.,0.));
#180=DIRECTION('',(-1.,0.,0.));
#190=AXIS2_PLACEMENT_3D('',#160,#170,#180);
#200=CIRCLE('',#190,4.5);
#210=CARTESIAN_POINT('',(54.5,-3.,25.));
#220=VERTEX_POINT('',#210);
#230=EDGE_CURVE('',#130,#220,#200,.T.);
#240=ORIENTED_EDGE('',*,*,#230,.F.);
#250=CARTESIAN_POINT('',(54.5,0.0300000000000038,25.));
#260=DIRECTION('',(0.,-1.,0.));
#270=VECTOR('',#260,1.);
#280=LINE('',#250,#270);
#290=CARTESIAN_POINT('',(54.5,-7.94503351997378E-16,25.));
#300=VERTEX_POINT('',#290);
#310=EDGE_CURVE('',#300,#220,#280,.T.);
#320=ORIENTED_EDGE('',*,*,#310,.T.);
#330=CARTESIAN_POINT('',(50.,-7.94503351997378E-16,25.));
#340=DIRECTION('',(0.,-1.,0.));
#350=DIRECTION('',(-1.,0.,0.));
#360=AXIS2_PLACEMENT_3D('',#330,#340,#350);
#370=CIRCLE('',#360,4.5);
#380=EDGE_CURVE('',#300,#110,#370,.T.);
#390=ORIENTED_EDGE('',*,*,#380,.F.);
#400=EDGE_LOOP('',(#390,#320,#240,#150));
#410=FACE_OUTER_BOUND('',#400,.T.);
#420=ADVANCED_FACE('',(#410),#50,.F.);
#430=CARTESIAN_POINT('',(50.,0.0300000000000011,-1.05009283082713E-15));
#440=DIRECTION('',(0.,-1.,0.));
#450=DIRECTION('',(-1.,0.,0.));
#460=AXIS2_PLACEMENT_3D('',#430,#440,#450);
#470=CYLINDRICAL_SURFACE('',#460,4.5);
#480=CARTESIAN_POINT('',(54.5,0.0300000000000011,-1.60118389044344E-15))
;
#490=DIRECTION('',(0.,-1.,0.));
#500=VECTOR('',#490,1.);
#510=LINE('',#480,#500);
#520=CARTESIAN_POINT('',(54.5,-7.94503351997378E-16,
-1.60118389044344E-15));
#530=VERTEX_POINT('',#520);
#540=CARTESIAN_POINT('',(54.5,-3.,-1.60118389044344E-15));
#550=VERTEX_POINT('',#540);
#560=EDGE_CURVE('',#530,#550,#510,.T.);
#570=ORIENTED_EDGE('',*,*,#560,.F.);
#580=CARTESIAN_POINT('',(50.,-3.,-1.05009283082713E-15));
#590=DIRECTION('',(0.,1.,0.));
#600=DIRECTION('',(-1.,0.,0.));
#610=AXIS2_PLACEMENT_3D('',#580,#590,#600);
#620=CIRCLE('',#610,4.5);
#630=CARTESIAN_POINT('',(45.5,-3.,-1.05009283082713E-15));
#640=VERTEX_POINT('',#630);
#650=EDGE_CURVE('',#550,#640,#620,.T.);
#660=ORIENTED_EDGE('',*,*,#650,.F.);
#670=CARTESIAN_POINT('',(45.5,0.0300000000000011,-1.05009283082713E-15))
;
#680=DIRECTION('',(0.,-1.,0.));
#690=VECTOR('',#680,1.);
#700=LINE('',#670,#690);
#710=CARTESIAN_POINT('',(45.5,-7.94503351997378E-16,
-1.05009283082713E-15));
#720=VERTEX_POINT('',#710);
#730=EDGE_CURVE('',#720,#640,#700,.T.);
#740=ORIENTED_EDGE('',*,*,#730,.T.);
#750=CARTESIAN_POINT('',(50.,-7.94503351997378E-16,-1.05009283082713E-15
));
#760=DIRECTION('',(0.,-1.,0.));
#770=DIRECTION('',(-1.,0.,0.));
#780=AXIS2_PLACEMENT_3D('',#750,#760,#770);
#790=CIRCLE('',#780,4.5);
#800=EDGE_CURVE('',#720,#530,#790,.T.);
#810=ORIENTED_EDGE('',*,*,#800,.F.);
#820=EDGE_LOOP('',(#810,#740,#660,#570));
#830=FACE_OUTER_BOUND('',#820,.T.);
#840=ADVANCED_FACE('',(#830),#470,.F.);
#850=CARTESIAN_POINT('',(-1.55939759085374E-31,0.0300000000000038,25.));
#860=DIRECTION('',(0.,-1.,0.));
#870=DIRECTION('',(-1.,0.,0.));
#880=AXIS2_PLACEMENT_3D('',#850,#860,#870);
#890=CYLINDRICAL_SURFACE('',#880,4.5);
#900=CARTESIAN_POINT('',(4.5,0.0300000000000038,25.));
#910=DIRECTION('',(0.,-1.,0.));
#920=VECTOR('',#910,1.);
#930=LINE('',#900,#920);
#940=CARTESIAN_POINT('',(4.5,-7.94503351997378E-16,25.));
#950=VERTEX_POINT('',#940);
#960=CARTESIAN_POINT('',(4.5,-3.,25.));
#970=VERTEX_POINT('',#960);
#980=EDGE_CURVE('',#950,#970,#930,.T.);
#990=ORIENTED_EDGE('',*,*,#980,.F.);
#1000=CARTESIAN_POINT('',(-1.55939759085374E-31,-3.,25.));
#1010=DIRECTION('',(0.,1.,0.));
#1020=DIRECTION('',(-1.,0.,0.));
#1030=AXIS2_PLACEMENT_3D('',#1000,#1010,#1020);
#1040=CIRCLE('',#1030,4.5);
#1050=CARTESIAN_POINT('',(-4.5,-3.,25.));
#1060=VERTEX_POINT('',#1050);
#1070=EDGE_CURVE('',#970,#1060,#1040,.T.);
#1080=ORIENTED_EDGE('',*,*,#1070,.F.);
#1090=CARTESIAN_POINT('',(-4.5,0.0300000000000038,25.));
#1100=DIRECTION('',(0.,-1.,0.));
#1110=VECTOR('',#1100,1.);
#1120=LINE('',#1090,#1110);
#1130=CARTESIAN_POINT('',(-4.5,-7.94503351997378E-16,25.));
#1140=VERTEX_POINT('',#1130);
#1150=EDGE_CURVE('',#1140,#1060,#1120,.T.);
#1160=ORIENTED_EDGE('',*,*,#1150,.T.);
#1170=CARTESIAN_POINT('',(-1.55939759085374E-31,-7.94503351997378E-16,
25.));
#1180=DIRECTION('',(0.,-1.,0.));
#1190=DIRECTION('',(-1.,0.,0.));
#1200=AXIS2_PLACEMENT_3D('',#1170,#1180,#1190);
#1210=CIRCLE('',#1200,4.5);
#1220=EDGE_CURVE('',#1140,#950,#1210,.T.);
#1230=ORIENTED_EDGE('',*,*,#1220,.F.);
#1240=EDGE_LOOP('',(#1230,#1160,#1080,#990));
#1250=FACE_OUTER_BOUND('',#1240,.T.);
#1260=ADVANCED_FACE('',(#1250),#890,.F.);
#1270=CARTESIAN_POINT('',(-7.25219740266793E-32,0.0300000000000011,
-1.61037522526339E-16));
#1280=DIRECTION('',(0.,-1.,0.));
#1290=DIRECTION('',(-1.,0.,0.));
#1300=AXIS2_PLACEMENT_3D('',#1270,#1280,#1290);
#1310=CYLINDRICAL_SURFACE('',#1300,4.5);
#1320=CARTESIAN_POINT('',(-4.5,0.0300000000000011,-1.61037522526339E-16)
);
#1330=DIRECTION('',(0.,-1.,0.));
#1340=VECTOR('',#1330,1.);
#1350=LINE('',#1320,#1340);
#1360=CARTESIAN_POINT('',(-4.5,-7.94503351997378E-16,
-1.61037522526339E-16));
#1370=VERTEX_POINT('',#1360);
#1380=CARTESIAN_POINT('',(-4.5,-3.,-1.61037522526339E-16));
#1390=VERTEX_POINT('',#1380);
#1400=EDGE_CURVE('',#1370,#1390,#1350,.T.);
#1410=ORIENTED_EDGE('',*,*,#1400,.F.);
#1420=CARTESIAN_POINT('',(-7.25219740266793E-32,-3.,
-1.61037522526339E-16));
#1430=DIRECTION('',(0.,1.,0.));
#1440=DIRECTION('',(-1.,0.,0.));
#1450=AXIS2_PLACEMENT_3D('',#1420,#1430,#1440);
#1460=CIRCLE('',#1450,4.5);
#1470=CARTESIAN_POINT('',(4.5,-3.,-7.12128582142648E-16));
#1480=VERTEX_POINT('',#1470);
#1490=EDGE_CURVE('',#1390,#1480,#1460,.T.);
#1500=ORIENTED_EDGE('',*,*,#1490,.F.);
#1510=CARTESIAN_POINT('',(4.5,0.0300000000000011,-7.12128582142648E-16))
;
#1520=DIRECTION('',(0.,-1.,0.));
#1530=VECTOR('',#1520,1.);
#1540=LINE('',#1510,#1530);
#1550=CARTESIAN_POINT('',(4.5,-7.94503351997378E-16,
-7.12128582142648E-16));
#1560=VERTEX_POINT('',#1550);
#1570=EDGE_CURVE('',#1560,#1480,#1540,.T.);
#1580=ORIENTED_EDGE('',*,*,#1570,.T.);
#1590=CARTESIAN_POINT('',(-7.25219740266793E-32,-7.94503351997378E-16,
-1.61037522526339E-16));
#1600=DIRECTION('',(0.,-1.,0.));
#1610=DIRECTION('',(-1.,0.,0.));
#1620=AXIS2_PLACEMENT_3D('',#1590,#1600,#1610);
#1630=CIRCLE('',#1620,4.5);
#1640=EDGE_CURVE('',#1560,#1370,#1630,.T.);
#1650=ORIENTED_EDGE('',*,*,#1640,.F.);
#1660=EDGE_LOOP('',(#1650,#1580,#1500,#1410));
#1670=FACE_OUTER_BOUND('',#1660,.T.);
#1680=ADVANCED_FACE('',(#1670),#1310,.F.);
#1690=CARTESIAN_POINT('',(-24.,0.0300000000000023,-11.98));
#1700=DIRECTION('',(-1.,0.,0.));
#1710=DIRECTION('',(0.,1.,0.));
#1720=AXIS2_PLACEMENT_3D('',#1690,#1700,#1710);
#1730=PLANE('',#1720);
#1740=CARTESIAN_POINT('',(-24.,-3.,0.));
#1750=DIRECTION('',(0.,0.,1.));
#1760=VECTOR('',#1750,1.);
#1770=LINE('',#1740,#1760);
#1780=CARTESIAN_POINT('',(-24.,-3.,-9.5));
#1790=VERTEX_POINT('',#1780);
#1800=CARTESIAN_POINT('',(-24.,-3.,34.5));
#1810=VERTEX_POINT('',#1800);
#1820=EDGE_CURVE('',#1790,#1810,#1770,.T.);
#1830=ORIENTED_EDGE('',*,*,#1820,.T.);
#1840=CARTESIAN_POINT('',(-24.,0.,-9.5));
#1850=DIRECTION('',(0.,-1.,0.));
#1860=VECTOR('',#1850,1.);
#1870=LINE('',#1840,#1860);
#1880=CARTESIAN_POINT('',(-24.,-7.95994129984545E-16,-9.5));
#1890=VERTEX_POINT('',#1880);
#1900=EDGE_CURVE('',#1890,#1790,#1870,.T.);
#1910=ORIENTED_EDGE('',*,*,#1900,.T.);
#1920=CARTESIAN_POINT('',(-24.,-7.95994129984545E-16,0.));
#1930=DIRECTION('',(0.,0.,1.));
#1940=VECTOR('',#1930,1.);
#1950=LINE('',#1920,#1940);
#1960=CARTESIAN_POINT('',(-24.,-7.95994129984545E-16,34.5));
#1970=VERTEX_POINT('',#1960);
#1980=EDGE_CURVE('',#1890,#1970,#1950,.T.);
#1990=ORIENTED_EDGE('',*,*,#1980,.F.);
#2000=CARTESIAN_POINT('',(-24.,0.,34.5));
#2010=DIRECTION('',(0.,-1.,0.));
#2020=VECTOR('',#2010,1.);
#2030=LINE('',#2000,#2020);
#2040=EDGE_CURVE('',#1970,#1810,#2030,.T.);
#2050=ORIENTED_EDGE('',*,*,#2040,.F.);
#2060=EDGE_LOOP('',(#2050,#1990,#1910,#1830));
#2070=FACE_OUTER_BOUND('',#2060,.T.);
#2080=ADVANCED_FACE('',(#2070),#1730,.T.);
#2090=CARTESIAN_POINT('',(-21.,0.,-9.5));
#2100=DIRECTION('',(0.,-1.,0.));
#2110=DIRECTION('',(-1.,0.,0.));
#2120=AXIS2_PLACEMENT_3D('',#2090,#2100,#2110);
#2130=CYLINDRICAL_SURFACE('',#2120,3.);
#2140=CARTESIAN_POINT('',(-21.,-3.,-9.5));
#2150=DIRECTION('',(0.,-1.,0.));
#2160=DIRECTION('',(-1.,0.,0.));
#2170=AXIS2_PLACEMENT_3D('',#2140,#2150,#2160);
#2180=CIRCLE('',#2170,3.);
#2190=CARTESIAN_POINT('',(-21.,-3.,-12.5));
#2200=VERTEX_POINT('',#2190);
#2210=EDGE_CURVE('',#1790,#2200,#2180,.T.);
#2220=ORIENTED_EDGE('',*,*,#2210,.F.);
#2230=CARTESIAN_POINT('',(-21.,0.,-12.5));
#2240=DIRECTION('',(0.,-1.,0.));
#2250=VECTOR('',#2240,1.);
#2260=LINE('',#2230,#2250);
#2270=CARTESIAN_POINT('',(-21.,-7.95994129984545E-16,-12.5));
#2280=VERTEX_POINT('',#2270);
#2290=EDGE_CURVE('',#2280,#2200,#2260,.T.);
#2300=ORIENTED_EDGE('',*,*,#2290,.T.);
#2310=CARTESIAN_POINT('',(-21.,-7.95994129984545E-16,-9.5));
#2320=DIRECTION('',(0.,-1.,0.));
#2330=DIRECTION('',(-1.,0.,0.));
#2340=AXIS2_PLACEMENT_3D('',#2310,#2320,#2330);
#2350=CIRCLE('',#2340,3.);
#2360=EDGE_CURVE('',#1890,#2280,#2350,.T.);
#2370=ORIENTED_EDGE('',*,*,#2360,.T.);
#2380=ORIENTED_EDGE('',*,*,#1900,.F.);
#2390=EDGE_LOOP('',(#2380,#2370,#2300,#2220));
#2400=FACE_OUTER_BOUND('',#2390,.T.);
#2410=ADVANCED_FACE('',(#2400),#2130,.T.);
#2420=CARTESIAN_POINT('',(-23.5,0.0300000000000023,37.5));
#2430=DIRECTION('',(0.,0.,1.));
#2440=DIRECTION('',(1.,0.,0.));
#2450=AXIS2_PLACEMENT_3D('',#2420,#2430,#2440);
#2460=PLANE('',#2450);
#2470=CARTESIAN_POINT('',(0.,-7.95994129984545E-16,37.5));
#2480=DIRECTION('',(1.,0.,0.));
#2490=VECTOR('',#2480,1.);
#2500=LINE('',#2470,#2490);
#2510=CARTESIAN_POINT('',(-21.,-7.95994129984545E-16,37.5));
#2520=VERTEX_POINT('',#2510);
#2530=CARTESIAN_POINT('',(71.0000000000001,-7.95994129984545E-16,37.5));
#2540=VERTEX_POINT('',#2530);
#2550=EDGE_CURVE('',#2520,#2540,#2500,.T.);
#2560=ORIENTED_EDGE('',*,*,#2550,.F.);
#2570=CARTESIAN_POINT('',(71.0000000000001,0.,37.5));
#2580=DIRECTION('',(0.,-1.,0.));
#2590=VECTOR('',#2580,1.);
#2600=LINE('',#2570,#2590);
#2610=CARTESIAN_POINT('',(71.0000000000001,-3.,37.5));
#2620=VERTEX_POINT('',#2610);
#2630=EDGE_CURVE('',#2540,#2620,#2600,.T.);
#2640=ORIENTED_EDGE('',*,*,#2630,.F.);
#2650=CARTESIAN_POINT('',(0.,-3.,37.5));
#2660=DIRECTION('',(1.,0.,0.));
#2670=VECTOR('',#2660,1.);
#2680=LINE('',#2650,#2670);
#2690=CARTESIAN_POINT('',(-21.,-3.,37.5));
#2700=VERTEX_POINT('',#2690);
#2710=EDGE_CURVE('',#2700,#2620,#2680,.T.);
#2720=ORIENTED_EDGE('',*,*,#2710,.T.);
#2730=CARTESIAN_POINT('',(-21.,0.,37.5));
#2740=DIRECTION('',(0.,-1.,0.));
#2750=VECTOR('',#2740,1.);
#2760=LINE('',#2730,#2750);
#2770=EDGE_CURVE('',#2520,#2700,#2760,.T.);
#2780=ORIENTED_EDGE('',*,*,#2770,.T.);
#2790=EDGE_LOOP('',(#2780,#2720,#2640,#2560));
#2800=FACE_OUTER_BOUND('',#2790,.T.);
#2810=ADVANCED_FACE('',(#2800),#2460,.T.);
#2820=CARTESIAN_POINT('',(-24.5,-3.,-13.));
#2830=DIRECTION('',(-0.,-1.,-0.));
#2840=DIRECTION('',(-1.,0.,0.));
#2850=AXIS2_PLACEMENT_3D('',#2820,#2830,#2840);
#2860=PLANE('',#2850);
#2870=EDGE_CURVE('',#220,#130,#200,.T.);
#2880=ORIENTED_EDGE('',*,*,#2870,.T.);
#2890=ORIENTED_EDGE('',*,*,#230,.T.);
#2900=EDGE_LOOP('',(#2890,#2880));
#2910=FACE_BOUND('',#2900,.T.);
#2920=EDGE_CURVE('',#640,#550,#620,.T.);
#2930=ORIENTED_EDGE('',*,*,#2920,.T.);
#2940=ORIENTED_EDGE('',*,*,#650,.T.);
#2950=EDGE_LOOP('',(#2940,#2930));
#2960=FACE_BOUND('',#2950,.T.);
#2970=ORIENTED_EDGE('',*,*,#1070,.T.);
#2980=EDGE_CURVE('',#1060,#970,#1040,.T.);
#2990=ORIENTED_EDGE('',*,*,#2980,.T.);
#3000=EDGE_LOOP('',(#2990,#2970));
#3010=FACE_BOUND('',#3000,.T.);
#3020=ORIENTED_EDGE('',*,*,#1490,.T.);
#3030=EDGE_CURVE('',#1480,#1390,#1460,.T.);
#3040=ORIENTED_EDGE('',*,*,#3030,.T.);
#3050=EDGE_LOOP('',(#3040,#3020));
#3060=FACE_BOUND('',#3050,.T.);
#3070=CARTESIAN_POINT('',(71.0000000000001,-3.,-9.5));
#3080=DIRECTION('',(0.,-1.,0.));
#3090=DIRECTION('',(-1.,0.,0.));
#3100=AXIS2_PLACEMENT_3D('',#3070,#3080,#3090);
#3110=CIRCLE('',#3100,3.);
#3120=CARTESIAN_POINT('',(71.0000000000001,-3.,-12.5));
#3130=VERTEX_POINT('',#3120);
#3140=CARTESIAN_POINT('',(74.0000000000001,-3.,-9.5));
#3150=VERTEX_POINT('',#3140);
#3160=EDGE_CURVE('',#3130,#3150,#3110,.T.);
#3170=ORIENTED_EDGE('',*,*,#3160,.T.);
#3180=CARTESIAN_POINT('',(0.,-3.,-12.5));
#3190=DIRECTION('',(-1.,0.,0.));
#3200=VECTOR('',#3190,1.);
#3210=LINE('',#3180,#3200);
#3220=EDGE_CURVE('',#3130,#2200,#3210,.T.);
#3230=ORIENTED_EDGE('',*,*,#3220,.F.);
#3240=ORIENTED_EDGE('',*,*,#2210,.T.);
#3250=ORIENTED_EDGE('',*,*,#1820,.F.);
#3260=CARTESIAN_POINT('',(-21.,-3.,34.5));
#3270=DIRECTION('',(0.,-1.,0.));
#3280=DIRECTION('',(-1.,0.,0.));
#3290=AXIS2_PLACEMENT_3D('',#3260,#3270,#3280);
#3300=CIRCLE('',#3290,3.);
#3310=EDGE_CURVE('',#2700,#1810,#3300,.T.);
#3320=ORIENTED_EDGE('',*,*,#3310,.T.);
#3330=ORIENTED_EDGE('',*,*,#2710,.F.);
#3340=CARTESIAN_POINT('',(71.0000000000001,-3.,34.5));
#3350=DIRECTION('',(0.,-1.,0.));
#3360=DIRECTION('',(-1.,0.,0.));
#3370=AXIS2_PLACEMENT_3D('',#3340,#3350,#3360);
#3380=CIRCLE('',#3370,3.);
#3390=CARTESIAN_POINT('',(74.0000000000001,-3.,34.5));
#3400=VERTEX_POINT('',#3390);
#3410=EDGE_CURVE('',#3400,#2620,#3380,.T.);
#3420=ORIENTED_EDGE('',*,*,#3410,.T.);
#3430=CARTESIAN_POINT('',(74.0000000000001,-3.,0.));
#3440=DIRECTION('',(0.,0.,-1.));
#3450=VECTOR('',#3440,1.);
#3460=LINE('',#3430,#3450);
#3470=EDGE_CURVE('',#3400,#3150,#3460,.T.);
#3480=ORIENTED_EDGE('',*,*,#3470,.F.);
#3490=EDGE_LOOP('',(#3480,#3420,#3330,#3320,#3250,#3240,#3230,#3170));
#3500=FACE_OUTER_BOUND('',#3490,.T.);
#3510=ADVANCED_FACE('',(#2910,#2960,#3010,#3060,#3500),#2860,.T.);
#3520=CARTESIAN_POINT('',(74.0000000000001,-3.03,-11.98));
#3530=DIRECTION('',(1.,0.,0.));
#3540=DIRECTION('',(0.,-1.,0.));
#3550=AXIS2_PLACEMENT_3D('',#3520,#3530,#3540);
#3560=PLANE('',#3550);
#3570=ORIENTED_EDGE('',*,*,#3470,.T.);
#3580=CARTESIAN_POINT('',(74.0000000000001,0.,34.5));
#3590=DIRECTION('',(0.,-1.,0.));
#3600=VECTOR('',#3590,1.);
#3610=LINE('',#3580,#3600);
#3620=CARTESIAN_POINT('',(74.0000000000001,-7.95994129984545E-16,34.5));
#3630=VERTEX_POINT('',#3620);
#3640=EDGE_CURVE('',#3630,#3400,#3610,.T.);
#3650=ORIENTED_EDGE('',*,*,#3640,.T.);
#3660=CARTESIAN_POINT('',(74.0000000000001,-7.95994129984545E-16,0.));
#3670=DIRECTION('',(0.,0.,-1.));
#3680=VECTOR('',#3670,1.);
#3690=LINE('',#3660,#3680);
#3700=CARTESIAN_POINT('',(74.0000000000001,-7.95994129984545E-16,-9.5));
#3710=VERTEX_POINT('',#3700);
#3720=EDGE_CURVE('',#3630,#3710,#3690,.T.);
#3730=ORIENTED_EDGE('',*,*,#3720,.F.);
#3740=CARTESIAN_POINT('',(74.0000000000001,0.,-9.5));
#3750=DIRECTION('',(0.,-1.,0.));
#3760=VECTOR('',#3750,1.);
#3770=LINE('',#3740,#3760);
#3780=EDGE_CURVE('',#3710,#3150,#3770,.T.);
#3790=ORIENTED_EDGE('',*,*,#3780,.F.);
#3800=EDGE_LOOP('',(#3790,#3730,#3650,#3570));
#3810=FACE_OUTER_BOUND('',#3800,.T.);
#3820=ADVANCED_FACE('',(#3810),#3560,.T.);
#3830=CARTESIAN_POINT('',(71.0000000000001,0.,34.5));
#3840=DIRECTION('',(0.,-1.,0.));
#3850=DIRECTION('',(-1.,0.,0.));
#3860=AXIS2_PLACEMENT_3D('',#3830,#3840,#3850);
#3870=CYLINDRICAL_SURFACE('',#3860,3.);
#3880=ORIENTED_EDGE('',*,*,#3410,.F.);
#3890=ORIENTED_EDGE('',*,*,#2630,.T.);
#3900=CARTESIAN_POINT('',(71.0000000000001,-7.95994129984545E-16,34.5));
#3910=DIRECTION('',(0.,-1.,0.));
#3920=DIRECTION('',(-1.,0.,0.));
#3930=AXIS2_PLACEMENT_3D('',#3900,#3910,#3920);
#3940=CIRCLE('',#3930,3.);
#3950=EDGE_CURVE('',#3630,#2540,#3940,.T.);
#3960=ORIENTED_EDGE('',*,*,#3950,.T.);
#3970=ORIENTED_EDGE('',*,*,#3640,.F.);
#3980=EDGE_LOOP('',(#3970,#3960,#3890,#3880));
#3990=FACE_OUTER_BOUND('',#3980,.T.);
#4000=ADVANCED_FACE('',(#3990),#3870,.T.);
#4010=CARTESIAN_POINT('',(-23.5,-3.03,-12.5));
#4020=DIRECTION('',(0.,0.,-1.));
#4030=DIRECTION('',(-1.,0.,0.));
#4040=AXIS2_PLACEMENT_3D('',#4010,#4020,#4030);
#4050=PLANE('',#4040);
#4060=CARTESIAN_POINT('',(0.,-7.95994129984545E-16,-12.5));
#4070=DIRECTION('',(-1.,0.,0.));
#4080=VECTOR('',#4070,1.);
#4090=LINE('',#4060,#4080);
#4100=CARTESIAN_POINT('',(71.0000000000001,-7.95994129984545E-16,-12.5))
;
#4110=VERTEX_POINT('',#4100);
#4120=EDGE_CURVE('',#4110,#2280,#4090,.T.);
#4130=ORIENTED_EDGE('',*,*,#4120,.F.);
#4140=ORIENTED_EDGE('',*,*,#2290,.F.);
#4150=ORIENTED_EDGE('',*,*,#3220,.T.);
#4160=CARTESIAN_POINT('',(71.0000000000001,0.,-12.5));
#4170=DIRECTION('',(0.,-1.,0.));
#4180=VECTOR('',#4170,1.);
#4190=LINE('',#4160,#4180);
#4200=EDGE_CURVE('',#4110,#3130,#4190,.T.);
#4210=ORIENTED_EDGE('',*,*,#4200,.T.);
#4220=EDGE_LOOP('',(#4210,#4150,#4140,#4130));
#4230=FACE_OUTER_BOUND('',#4220,.T.);
#4240=ADVANCED_FACE('',(#4230),#4050,.T.);
#4250=CARTESIAN_POINT('',(-24.5,-7.95994129984545E-16,-13.));
#4260=DIRECTION('',(-0.,-1.,-0.));
#4270=DIRECTION('',(-1.,0.,0.));
#4280=AXIS2_PLACEMENT_3D('',#4250,#4260,#4270);
#4290=PLANE('',#4280);
#4300=EDGE_CURVE('',#110,#300,#370,.T.);
#4310=ORIENTED_EDGE('',*,*,#4300,.T.);
#4320=ORIENTED_EDGE('',*,*,#380,.T.);
#4330=EDGE_LOOP('',(#4320,#4310));
#4340=FACE_BOUND('',#4330,.T.);
#4350=EDGE_CURVE('',#530,#720,#790,.T.);
#4360=ORIENTED_EDGE('',*,*,#4350,.T.);
#4370=ORIENTED_EDGE('',*,*,#800,.T.);
#4380=EDGE_LOOP('',(#4370,#4360));
#4390=FACE_BOUND('',#4380,.T.);
#4400=EDGE_CURVE('',#950,#1140,#1210,.T.);
#4410=ORIENTED_EDGE('',*,*,#4400,.T.);
#4420=ORIENTED_EDGE('',*,*,#1220,.T.);
#4430=EDGE_LOOP('',(#4420,#4410));
#4440=FACE_BOUND('',#4430,.T.);
#4450=EDGE_CURVE('',#1370,#1560,#1630,.T.);
#4460=ORIENTED_EDGE('',*,*,#4450,.T.);
#4470=ORIENTED_EDGE('',*,*,#1640,.T.);
#4480=EDGE_LOOP('',(#4470,#4460));
#4490=FACE_BOUND('',#4480,.T.);
#4500=CARTESIAN_POINT('',(71.0000000000001,-7.95994129984545E-16,-9.5));
#4510=DIRECTION('',(0.,-1.,0.));
#4520=DIRECTION('',(-1.,0.,0.));
#4530=AXIS2_PLACEMENT_3D('',#4500,#4510,#4520);
#4540=CIRCLE('',#4530,3.);
#4550=EDGE_CURVE('',#4110,#3710,#4540,.T.);
#4560=ORIENTED_EDGE('',*,*,#4550,.F.);
#4570=ORIENTED_EDGE('',*,*,#3720,.T.);
#4580=ORIENTED_EDGE('',*,*,#3950,.F.);
#4590=ORIENTED_EDGE('',*,*,#2550,.T.);
#4600=CARTESIAN_POINT('',(-21.,-7.95994129984545E-16,34.5));
#4610=DIRECTION('',(0.,-1.,0.));
#4620=DIRECTION('',(-1.,0.,0.));
#4630=AXIS2_PLACEMENT_3D('',#4600,#4610,#4620);
#4640=CIRCLE('',#4630,3.);
#4650=EDGE_CURVE('',#2520,#1970,#4640,.T.);
#4660=ORIENTED_EDGE('',*,*,#4650,.F.);
#4670=ORIENTED_EDGE('',*,*,#1980,.T.);
#4680=ORIENTED_EDGE('',*,*,#2360,.F.);
#4690=ORIENTED_EDGE('',*,*,#4120,.T.);
#4700=EDGE_LOOP('',(#4690,#4680,#4670,#4660,#4590,#4580,#4570,#4560));
#4710=FACE_OUTER_BOUND('',#4700,.T.);
#4720=ADVANCED_FACE('',(#4340,#4390,#4440,#4490,#4710),#4290,.F.);
#4730=CARTESIAN_POINT('',(-21.,0.,34.5));
#4740=DIRECTION('',(0.,-1.,0.));
#4750=DIRECTION('',(-1.,0.,0.));
#4760=AXIS2_PLACEMENT_3D('',#4730,#4740,#4750);
#4770=CYLINDRICAL_SURFACE('',#4760,3.);
#4780=ORIENTED_EDGE('',*,*,#3310,.F.);
#4790=ORIENTED_EDGE('',*,*,#2040,.T.);
#4800=ORIENTED_EDGE('',*,*,#4650,.T.);
#4810=ORIENTED_EDGE('',*,*,#2770,.F.);
#4820=EDGE_LOOP('',(#4810,#4800,#4790,#4780));
#4830=FACE_OUTER_BOUND('',#4820,.T.);
#4840=ADVANCED_FACE('',(#4830),#4770,.T.);
#4850=CARTESIAN_POINT('',(71.0000000000001,0.,-9.5));
#4860=DIRECTION('',(0.,-1.,0.));
#4870=DIRECTION('',(-1.,0.,0.));
#4880=AXIS2_PLACEMENT_3D('',#4850,#4860,#4870);
#4890=CYLINDRICAL_SURFACE('',#4880,3.);
#4900=ORIENTED_EDGE('',*,*,#3160,.F.);
#4910=ORIENTED_EDGE('',*,*,#3780,.T.);
#4920=ORIENTED_EDGE('',*,*,#4550,.T.);
#4930=ORIENTED_EDGE('',*,*,#4200,.F.);
#4940=EDGE_LOOP('',(#4930,#4920,#4910,#4900));
#4950=FACE_OUTER_BOUND('',#4940,.T.);
#4960=ADVANCED_FACE('',(#4950),#4890,.T.);
#4970=CARTESIAN_POINT('',(-1.55939759085374E-31,0.0300000000000038,25.))
;
#4980=DIRECTION('',(0.,-1.,0.));
#4990=DIRECTION('',(-1.,0.,0.));
#5000=AXIS2_PLACEMENT_3D('',#4970,#4980,#4990);
#5010=CYLINDRICAL_SURFACE('',#5000,4.5);
#5020=ORIENTED_EDGE('',*,*,#980,.T.);
#5030=ORIENTED_EDGE('',*,*,#4400,.F.);
#5040=ORIENTED_EDGE('',*,*,#1150,.F.);
#5050=ORIENTED_EDGE('',*,*,#2980,.F.);
#5060=EDGE_LOOP('',(#5050,#5040,#5030,#5020));
#5070=FACE_OUTER_BOUND('',#5060,.T.);
#5080=ADVANCED_FACE('',(#5070),#5010,.F.);
#5090=CARTESIAN_POINT('',(50.,0.0300000000000011,-1.05009283082713E-15))
;
#5100=DIRECTION('',(0.,-1.,0.));
#5110=DIRECTION('',(-1.,0.,0.));
#5120=AXIS2_PLACEMENT_3D('',#5090,#5100,#5110);
#5130=CYLINDRICAL_SURFACE('',#5120,4.5);
#5140=ORIENTED_EDGE('',*,*,#2920,.F.);
#5150=ORIENTED_EDGE('',*,*,#560,.T.);
#5160=ORIENTED_EDGE('',*,*,#4350,.F.);
#5170=ORIENTED_EDGE('',*,*,#730,.F.);
#5180=EDGE_LOOP('',(#5170,#5160,#5150,#5140));
#5190=FACE_OUTER_BOUND('',#5180,.T.);
#5200=ADVANCED_FACE('',(#5190),#5130,.F.);
#5210=CARTESIAN_POINT('',(-7.25219740266793E-32,0.0300000000000011,
-1.61037522526339E-16));
#5220=DIRECTION('',(0.,-1.,0.));
#5230=DIRECTION('',(-1.,0.,0.));
#5240=AXIS2_PLACEMENT_3D('',#5210,#5220,#5230);
#5250=CYLINDRICAL_SURFACE('',#5240,4.5);
#5260=ORIENTED_EDGE('',*,*,#1400,.T.);
#5270=ORIENTED_EDGE('',*,*,#4450,.F.);
#5280=ORIENTED_EDGE('',*,*,#1570,.F.);
#5290=ORIENTED_EDGE('',*,*,#3030,.F.);
#5300=EDGE_LOOP('',(#5290,#5280,#5270,#5260));
#5310=FACE_OUTER_BOUND('',#5300,.T.);
#5320=ADVANCED_FACE('',(#5310),#5250,.F.);
#5330=CARTESIAN_POINT('',(50.,0.0300000000000038,25.));
#5340=DIRECTION('',(0.,-1.,0.));
#5350=DIRECTION('',(-1.,0.,0.));
#5360=AXIS2_PLACEMENT_3D('',#5330,#5340,#5350);
#5370=CYLINDRICAL_SURFACE('',#5360,4.5);
#5380=ORIENTED_EDGE('',*,*,#4300,.F.);
#5390=ORIENTED_EDGE('',*,*,#310,.F.);
#5400=ORIENTED_EDGE('',*,*,#2870,.F.);
#5410=ORIENTED_EDGE('',*,*,#140,.T.);
#5420=EDGE_LOOP('',(#5410,#5400,#5390,#5380));
#5430=FACE_OUTER_BOUND('',#5420,.T.);
#5440=ADVANCED_FACE('',(#5430),#5370,.F.);
#5450=CLOSED_SHELL('',(#420,#840,#1260,#1680,#2080,#2410,#2810,#3510,
#3820,#4000,#4240,#4720,#4840,#4960,#5080,#5200,#5320,#5440));
#5460=MANIFOLD_SOLID_BREP('',#5450);
#5470=CARTESIAN_POINT('',(0.,0.,0.));
#5480=DIRECTION('',(0.,0.,1.));
#5490=DIRECTION('',(1.,0.,0.));
#5500=AXIS2_PLACEMENT_3D('',#5470,#5480,#5490);
#5510=APPLICATION_CONTEXT(' ');
#5520=APPLICATION_PROTOCOL_DEFINITION(' ','automotive_design',1998,#5510
);
#5530=PRODUCT_CONTEXT('',#5510,'mechanical');
#5540=PRODUCT_DEFINITION_CONTEXT('part definition',#5510,'design');
#5550=PRODUCT('Verbindungslasche-MMS-55_3mm-schwarz_55.0185.2_PX176149',
'Verbindungslasche-MMS-55_3mm-schwarz_55.0185.2_PX176149','',(#5530));
#5560=PRODUCT_RELATED_PRODUCT_CATEGORY('part',' ',(#5550));
#5570=PRODUCT_DEFINITION_FORMATION_WITH_SPECIFIED_SOURCE('','',#5550,
.BOUGHT.);
#5580=PRODUCT_DEFINITION('',' ',#5570,#5540);
#5590=PRODUCT_DEFINITION_SHAPE('','',#5580);
#5600=DIMENSIONAL_EXPONENTS(1.,0.,0.,0.,0.,0.,0.);
#5610=DIMENSIONAL_EXPONENTS(0.,0.,0.,0.,0.,0.,0.);
#5620=DIMENSIONAL_EXPONENTS(0.,0.,0.,0.,0.,0.,0.);
#5630=(LENGTH_UNIT() NAMED_UNIT(*) SI_UNIT(.MILLI.,.METRE.));
#5640=(NAMED_UNIT(*) PLANE_ANGLE_UNIT() SI_UNIT($,.RADIAN.));
#5650=(NAMED_UNIT(*) SI_UNIT($,.STERADIAN.) SOLID_ANGLE_UNIT());
#5660=(GEOMETRIC_REPRESENTATION_CONTEXT(3) 
GLOBAL_UNCERTAINTY_ASSIGNED_CONTEXT((#5670)) 
GLOBAL_UNIT_ASSIGNED_CONTEXT((#5630,#5640,#5650)) REPRESENTATION_CONTEXT
('',''));
#5670=UNCERTAINTY_MEASURE_WITH_UNIT(LENGTH_MEASURE(1.E-6),#5630,
'distance_accuracy_value','maximum gap value');
#5680=ADVANCED_BREP_SHAPE_REPRESENTATION('',(#5500,#5460),#5660);
#5690=SHAPE_DEFINITION_REPRESENTATION(#5590,#5680);
#5700=COLOUR_RGB('',0.0823529437184334,0.0862745121121407,
0.0980392247438431);
#5710=FILL_AREA_STYLE_COLOUR('',#5700);
#5720=FILL_AREA_STYLE('',(#5710));
#5730=SURFACE_STYLE_FILL_AREA(#5720);
#5740=SURFACE_SIDE_STYLE('',(#5730));
#5750=SURFACE_STYLE_USAGE(.BOTH.,#5740);
#5760=PRESENTATION_STYLE_ASSIGNMENT((#5750));
#5770=STYLED_ITEM('',(#5760),#5460);
#5780=DRAUGHTING_MODEL('',(#5770),#5660);
ENDSEC;
END-ISO-10303-21;
