ISO-10303-21;
HEADER;
FILE_DESCRIPTION(('Creo Elements/Direct Modeling STEP Export'),'2;1');
FILE_NAME(
'//KR-CAD2/PhoenixTemp/karl.letzgus/Konvertierung/55.0205_Haltewinkel-MM
S-55_50x50x50x6.stp','2022-03-21T 8:07:15',(''),(''),
'PTC Creo Elements/Direct Modeling STEP processor for AP214 (Solid Model
)',
'PTC Creo Elements/Direct Modeling 19.0C  15-Aug-2015 (C) Parametric Tec
hnology GmbH','');
FILE_SCHEMA(('AUTOMOTIVE_DESIGN { 1 0 10303 214 1 1 1 1 }'));
ENDSEC;
DATA;
#10=CARTESIAN_POINT('',(-1.55939759085374E-31,-25.,-18.94));
#20=DIRECTION('',(0.,0.,-1.));
#30=DIRECTION('',(-1.,0.,0.));
#40=AXIS2_PLACEMENT_3D('',#10,#20,#30);
#50=CYLINDRICAL_SURFACE('',#40,4.5);
#60=CARTESIAN_POINT('',(-4.5,-25.,-18.94));
#70=DIRECTION('',(0.,0.,-1.));
#80=VECTOR('',#70,1.);
#90=LINE('',#60,#80);
#100=CARTESIAN_POINT('',(-4.5,-25.,-19.));
#110=VERTEX_POINT('',#100);
#120=CARTESIAN_POINT('',(-4.5,-25.,-25.));
#130=VERTEX_POINT('',#120);
#140=EDGE_CURVE('',#110,#130,#90,.T.);
#150=ORIENTED_EDGE('',*,*,#140,.F.);
#160=CARTESIAN_POINT('',(-1.55939759085374E-31,-25.,-25.));
#170=DIRECTION('',(0.,0.,1.));
#180=DIRECTION('',(-1.,0.,0.));
#190=AXIS2_PLACEMENT_3D('',#160,#170,#180);
#200=CIRCLE('',#190,4.5);
#210=CARTESIAN_POINT('',(4.5,-25.,-25.));
#220=VERTEX_POINT('',#210);
#230=EDGE_CURVE('',#130,#220,#200,.T.);
#240=ORIENTED_EDGE('',*,*,#230,.F.);
#250=CARTESIAN_POINT('',(4.5,-25.,-18.94));
#260=DIRECTION('',(0.,0.,-1.));
#270=VECTOR('',#260,1.);
#280=LINE('',#250,#270);
#290=CARTESIAN_POINT('',(4.5,-25.,-19.));
#300=VERTEX_POINT('',#290);
#310=EDGE_CURVE('',#300,#220,#280,.T.);
#320=ORIENTED_EDGE('',*,*,#310,.T.);
#330=CARTESIAN_POINT('',(-1.55939759085374E-31,-25.,-19.));
#340=DIRECTION('',(0.,0.,-1.));
#350=DIRECTION('',(-1.,0.,0.));
#360=AXIS2_PLACEMENT_3D('',#330,#340,#350);
#370=CIRCLE('',#360,4.5);
#380=EDGE_CURVE('',#300,#110,#370,.T.);
#390=ORIENTED_EDGE('',*,*,#380,.F.);
#400=EDGE_LOOP('',(#390,#320,#240,#150));
#410=FACE_OUTER_BOUND('',#400,.T.);
#420=ADVANCED_FACE('',(#410),#50,.F.);
#430=CARTESIAN_POINT('',(-6.0185931749137E-32,0.0599999999999996,
-3.01561101627456E-16));
#440=DIRECTION('',(0.,-1.,0.));
#450=DIRECTION('',(-1.,0.,0.));
#460=AXIS2_PLACEMENT_3D('',#430,#440,#450);
#470=CYLINDRICAL_SURFACE('',#460,4.5);
#480=CARTESIAN_POINT('',(-4.5,0.0599999999999996,-3.01561101627456E-16))
;
#490=DIRECTION('',(0.,-1.,0.));
#500=VECTOR('',#490,1.);
#510=LINE('',#480,#500);
#520=CARTESIAN_POINT('',(-4.5,0.,-3.01561101627456E-16));
#530=VERTEX_POINT('',#520);
#540=CARTESIAN_POINT('',(-4.5,-6.,-3.01561101627456E-16));
#550=VERTEX_POINT('',#540);
#560=EDGE_CURVE('',#530,#550,#510,.T.);
#570=ORIENTED_EDGE('',*,*,#560,.F.);
#580=CARTESIAN_POINT('',(-6.0185931749137E-32,-6.,-3.01561101627456E-16)
);
#590=DIRECTION('',(0.,1.,0.));
#600=DIRECTION('',(-1.,0.,0.));
#610=AXIS2_PLACEMENT_3D('',#580,#590,#600);
#620=CIRCLE('',#610,4.5);
#630=CARTESIAN_POINT('',(4.5,-6.,-8.52652161243765E-16));
#640=VERTEX_POINT('',#630);
#650=EDGE_CURVE('',#550,#640,#620,.T.);
#660=ORIENTED_EDGE('',*,*,#650,.F.);
#670=CARTESIAN_POINT('',(4.5,0.0599999999999996,-8.52652161243765E-16));
#680=DIRECTION('',(0.,-1.,0.));
#690=VECTOR('',#680,1.);
#700=LINE('',#670,#690);
#710=CARTESIAN_POINT('',(4.5,-1.56125112837913E-15,-8.52652161243765E-16
));
#720=VERTEX_POINT('',#710);
#730=EDGE_CURVE('',#720,#640,#700,.T.);
#740=ORIENTED_EDGE('',*,*,#730,.T.);
#750=CARTESIAN_POINT('',(-6.0185931749137E-32,-1.56125112837913E-15,
-3.01561101627456E-16));
#760=DIRECTION('',(0.,-1.,0.));
#770=DIRECTION('',(-1.,0.,0.));
#780=AXIS2_PLACEMENT_3D('',#750,#760,#770);
#790=CIRCLE('',#780,4.5);
#800=EDGE_CURVE('',#720,#530,#790,.T.);
#810=ORIENTED_EDGE('',*,*,#800,.F.);
#820=EDGE_LOOP('',(#810,#740,#660,#570));
#830=FACE_OUTER_BOUND('',#820,.T.);
#840=ADVANCED_FACE('',(#830),#470,.F.);
#850=CARTESIAN_POINT('',(-25.5,-50.44,-19.));
#860=DIRECTION('',(0.,0.,1.));
#870=DIRECTION('',(1.,0.,0.));
#880=AXIS2_PLACEMENT_3D('',#850,#860,#870);
#890=PLANE('',#880);
#900=EDGE_CURVE('',#110,#300,#370,.T.);
#910=ORIENTED_EDGE('',*,*,#900,.T.);
#920=ORIENTED_EDGE('',*,*,#380,.T.);
#930=EDGE_LOOP('',(#920,#910));
#940=FACE_BOUND('',#930,.T.);
#950=CARTESIAN_POINT('',(25.,0.,-19.));
#960=DIRECTION('',(0.,1.,0.));
#970=VECTOR('',#960,1.);
#980=LINE('',#950,#970);
#990=CARTESIAN_POINT('',(25.,-45.,-19.));
#1000=VERTEX_POINT('',#990);
#1010=CARTESIAN_POINT('',(25.,-6.,-19.));
#1020=VERTEX_POINT('',#1010);
#1030=EDGE_CURVE('',#1000,#1020,#980,.T.);
#1040=ORIENTED_EDGE('',*,*,#1030,.T.);
#1050=CARTESIAN_POINT('',(20.,-45.,-19.));
#1060=DIRECTION('',(0.,0.,1.));
#1070=DIRECTION('',(1.,0.,0.));
#1080=AXIS2_PLACEMENT_3D('',#1050,#1060,#1070);
#1090=CIRCLE('',#1080,5.);
#1100=CARTESIAN_POINT('',(20.,-50.,-19.));
#1110=VERTEX_POINT('',#1100);
#1120=EDGE_CURVE('',#1110,#1000,#1090,.T.);
#1130=ORIENTED_EDGE('',*,*,#1120,.T.);
#1140=CARTESIAN_POINT('',(0.,-50.,-19.));
#1150=DIRECTION('',(1.,0.,0.));
#1160=VECTOR('',#1150,1.);
#1170=LINE('',#1140,#1160);
#1180=CARTESIAN_POINT('',(-20.,-50.,-19.));
#1190=VERTEX_POINT('',#1180);
#1200=EDGE_CURVE('',#1190,#1110,#1170,.T.);
#1210=ORIENTED_EDGE('',*,*,#1200,.T.);
#1220=CARTESIAN_POINT('',(-20.,-45.,-19.));
#1230=DIRECTION('',(0.,0.,-1.));
#1240=DIRECTION('',(-1.,0.,0.));
#1250=AXIS2_PLACEMENT_3D('',#1220,#1230,#1240);
#1260=CIRCLE('',#1250,5.);
#1270=CARTESIAN_POINT('',(-25.,-45.,-19.));
#1280=VERTEX_POINT('',#1270);
#1290=EDGE_CURVE('',#1190,#1280,#1260,.T.);
#1300=ORIENTED_EDGE('',*,*,#1290,.F.);
#1310=CARTESIAN_POINT('',(-25.,0.,-19.));
#1320=DIRECTION('',(0.,-1.,0.));
#1330=VECTOR('',#1320,1.);
#1340=LINE('',#1310,#1330);
#1350=CARTESIAN_POINT('',(-25.,-6.,-19.));
#1360=VERTEX_POINT('',#1350);
#1370=EDGE_CURVE('',#1360,#1280,#1340,.T.);
#1380=ORIENTED_EDGE('',*,*,#1370,.T.);
#1390=CARTESIAN_POINT('',(0.,-6.,-19.));
#1400=DIRECTION('',(1.,0.,0.));
#1410=VECTOR('',#1400,1.);
#1420=LINE('',#1390,#1410);
#1430=EDGE_CURVE('',#1360,#1020,#1420,.T.);
#1440=ORIENTED_EDGE('',*,*,#1430,.F.);
#1450=EDGE_LOOP('',(#1440,#1380,#1300,#1210,#1130,#1040));
#1460=FACE_OUTER_BOUND('',#1450,.T.);
#1470=ADVANCED_FACE('',(#940,#1460),#890,.T.);
#1480=CARTESIAN_POINT('',(-25.5,-50.,-25.06));
#1490=DIRECTION('',(-0.,1.,0.));
#1500=DIRECTION('',(1.,0.,0.));
#1510=AXIS2_PLACEMENT_3D('',#1480,#1490,#1500);
#1520=PLANE('',#1510);
#1530=ORIENTED_EDGE('',*,*,#1200,.F.);
#1540=CARTESIAN_POINT('',(20.,-50.,0.));
#1550=DIRECTION('',(0.,0.,-1.));
#1560=VECTOR('',#1550,1.);
#1570=LINE('',#1540,#1560);
#1580=CARTESIAN_POINT('',(20.,-50.,-25.));
#1590=VERTEX_POINT('',#1580);
#1600=EDGE_CURVE('',#1110,#1590,#1570,.T.);
#1610=ORIENTED_EDGE('',*,*,#1600,.F.);
#1620=CARTESIAN_POINT('',(0.,-50.,-25.));
#1630=DIRECTION('',(-1.,0.,0.));
#1640=VECTOR('',#1630,1.);
#1650=LINE('',#1620,#1640);
#1660=CARTESIAN_POINT('',(-20.,-50.,-25.));
#1670=VERTEX_POINT('',#1660);
#1680=EDGE_CURVE('',#1590,#1670,#1650,.T.);
#1690=ORIENTED_EDGE('',*,*,#1680,.F.);
#1700=CARTESIAN_POINT('',(-20.,-50.,0.));
#1710=DIRECTION('',(0.,0.,-1.));
#1720=VECTOR('',#1710,1.);
#1730=LINE('',#1700,#1720);
#1740=EDGE_CURVE('',#1190,#1670,#1730,.T.);
#1750=ORIENTED_EDGE('',*,*,#1740,.T.);
#1760=EDGE_LOOP('',(#1750,#1690,#1610,#1530));
#1770=FACE_OUTER_BOUND('',#1760,.T.);
#1780=ADVANCED_FACE('',(#1770),#1520,.F.);
#1790=CARTESIAN_POINT('',(25.,0.5,-25.5));
#1800=DIRECTION('',(-1.,0.,0.));
#1810=DIRECTION('',(0.,1.,0.));
#1820=AXIS2_PLACEMENT_3D('',#1790,#1800,#1810);
#1830=PLANE('',#1820);
#1840=CARTESIAN_POINT('',(25.,-1.56137310112353E-15,0.));
#1850=DIRECTION('',(0.,0.,-1.));
#1860=VECTOR('',#1850,1.);
#1870=LINE('',#1840,#1860);
#1880=CARTESIAN_POINT('',(25.,-1.56137310112353E-15,20.));
#1890=VERTEX_POINT('',#1880);
#1900=CARTESIAN_POINT('',(25.,-1.53075794227797E-15,-25.));
#1910=VERTEX_POINT('',#1900);
#1920=EDGE_CURVE('',#1890,#1910,#1870,.T.);
#1930=ORIENTED_EDGE('',*,*,#1920,.F.);
#1940=CARTESIAN_POINT('',(25.,0.,-25.));
#1950=DIRECTION('',(0.,1.,0.));
#1960=VECTOR('',#1950,1.);
#1970=LINE('',#1940,#1960);
#1980=CARTESIAN_POINT('',(25.,-45.,-25.));
#1990=VERTEX_POINT('',#1980);
#2000=EDGE_CURVE('',#1990,#1910,#1970,.T.);
#2010=ORIENTED_EDGE('',*,*,#2000,.T.);
#2020=CARTESIAN_POINT('',(25.,-45.,0.));
#2030=DIRECTION('',(0.,0.,-1.));
#2040=VECTOR('',#2030,1.);
#2050=LINE('',#2020,#2040);
#2060=EDGE_CURVE('',#1000,#1990,#2050,.T.);
#2070=ORIENTED_EDGE('',*,*,#2060,.T.);
#2080=ORIENTED_EDGE('',*,*,#1030,.F.);
#2090=CARTESIAN_POINT('',(25.,-6.,0.));
#2100=DIRECTION('',(0.,0.,1.));
#2110=VECTOR('',#2100,1.);
#2120=LINE('',#2090,#2110);
#2130=CARTESIAN_POINT('',(25.,-6.,20.));
#2140=VERTEX_POINT('',#2130);
#2150=EDGE_CURVE('',#1020,#2140,#2120,.T.);
#2160=ORIENTED_EDGE('',*,*,#2150,.F.);
#2170=CARTESIAN_POINT('',(25.,0.,20.));
#2180=DIRECTION('',(0.,1.,0.));
#2190=VECTOR('',#2180,1.);
#2200=LINE('',#2170,#2190);
#2210=EDGE_CURVE('',#2140,#1890,#2200,.T.);
#2220=ORIENTED_EDGE('',*,*,#2210,.F.);
#2230=EDGE_LOOP('',(#2220,#2160,#2080,#2070,#2010,#1930));
#2240=FACE_OUTER_BOUND('',#2230,.T.);
#2250=ADVANCED_FACE('',(#2240),#1830,.F.);
#2260=CARTESIAN_POINT('',(-25.5,-6.,-19.44));
#2270=DIRECTION('',(-0.,-1.,-0.));
#2280=DIRECTION('',(-1.,0.,0.));
#2290=AXIS2_PLACEMENT_3D('',#2260,#2270,#2280);
#2300=PLANE('',#2290);
#2310=ORIENTED_EDGE('',*,*,#650,.T.);
#2320=EDGE_CURVE('',#640,#550,#620,.T.);
#2330=ORIENTED_EDGE('',*,*,#2320,.T.);
#2340=EDGE_LOOP('',(#2330,#2310));
#2350=FACE_BOUND('',#2340,.T.);
#2360=CARTESIAN_POINT('',(-25.,-6.,0.));
#2370=DIRECTION('',(0.,0.,-1.));
#2380=VECTOR('',#2370,1.);
#2390=LINE('',#2360,#2380);
#2400=CARTESIAN_POINT('',(-25.,-6.,20.));
#2410=VERTEX_POINT('',#2400);
#2420=EDGE_CURVE('',#2410,#1360,#2390,.T.);
#2430=ORIENTED_EDGE('',*,*,#2420,.T.);
#2440=CARTESIAN_POINT('',(-20.,-6.,20.));
#2450=DIRECTION('',(0.,1.,0.));
#2460=DIRECTION('',(1.,0.,0.));
#2470=AXIS2_PLACEMENT_3D('',#2440,#2450,#2460);
#2480=CIRCLE('',#2470,5.);
#2490=CARTESIAN_POINT('',(-20.,-6.,25.));
#2500=VERTEX_POINT('',#2490);
#2510=EDGE_CURVE('',#2410,#2500,#2480,.T.);
#2520=ORIENTED_EDGE('',*,*,#2510,.F.);
#2530=CARTESIAN_POINT('',(0.,-6.,25.));
#2540=DIRECTION('',(-1.,0.,0.));
#2550=VECTOR('',#2540,1.);
#2560=LINE('',#2530,#2550);
#2570=CARTESIAN_POINT('',(20.,-6.,25.));
#2580=VERTEX_POINT('',#2570);
#2590=EDGE_CURVE('',#2580,#2500,#2560,.T.);
#2600=ORIENTED_EDGE('',*,*,#2590,.T.);
#2610=CARTESIAN_POINT('',(20.,-6.,20.));
#2620=DIRECTION('',(0.,-1.,0.));
#2630=DIRECTION('',(-1.,0.,0.));
#2640=AXIS2_PLACEMENT_3D('',#2610,#2620,#2630);
#2650=CIRCLE('',#2640,5.);
#2660=EDGE_CURVE('',#2140,#2580,#2650,.T.);
#2670=ORIENTED_EDGE('',*,*,#2660,.T.);
#2680=ORIENTED_EDGE('',*,*,#2150,.T.);
#2690=ORIENTED_EDGE('',*,*,#1430,.T.);
#2700=EDGE_LOOP('',(#2690,#2680,#2670,#2600,#2520,#2430));
#2710=FACE_OUTER_BOUND('',#2700,.T.);
#2720=ADVANCED_FACE('',(#2350,#2710),#2300,.T.);
#2730=CARTESIAN_POINT('',(-25.5,-1.56137310112353E-15,-25.5));
#2740=DIRECTION('',(-0.,-1.,-0.));
#2750=DIRECTION('',(-1.,0.,0.));
#2760=AXIS2_PLACEMENT_3D('',#2730,#2740,#2750);
#2770=PLANE('',#2760);
#2780=EDGE_CURVE('',#530,#720,#790,.T.);
#2790=ORIENTED_EDGE('',*,*,#2780,.T.);
#2800=ORIENTED_EDGE('',*,*,#800,.T.);
#2810=EDGE_LOOP('',(#2800,#2790));
#2820=FACE_BOUND('',#2810,.T.);
#2830=CARTESIAN_POINT('',(-20.,-1.56137310112353E-15,20.));
#2840=DIRECTION('',(0.,1.,0.));
#2850=DIRECTION('',(1.,0.,0.));
#2860=AXIS2_PLACEMENT_3D('',#2830,#2840,#2850);
#2870=CIRCLE('',#2860,5.);
#2880=CARTESIAN_POINT('',(-25.,-1.56137310112353E-15,20.));
#2890=VERTEX_POINT('',#2880);
#2900=CARTESIAN_POINT('',(-20.,-1.56137310112353E-15,25.));
#2910=VERTEX_POINT('',#2900);
#2920=EDGE_CURVE('',#2890,#2910,#2870,.T.);
#2930=ORIENTED_EDGE('',*,*,#2920,.T.);
#2940=CARTESIAN_POINT('',(-25.,-1.56137310112353E-15,0.));
#2950=DIRECTION('',(0.,0.,1.));
#2960=VECTOR('',#2950,1.);
#2970=LINE('',#2940,#2960);
#2980=CARTESIAN_POINT('',(-25.,-1.53075794227797E-15,-25.));
#2990=VERTEX_POINT('',#2980);
#3000=EDGE_CURVE('',#2990,#2890,#2970,.T.);
#3010=ORIENTED_EDGE('',*,*,#3000,.T.);
#3020=CARTESIAN_POINT('',(0.,-1.56137310112353E-15,-25.));
#3030=DIRECTION('',(-1.,0.,0.));
#3040=VECTOR('',#3030,1.);
#3050=LINE('',#3020,#3040);
#3060=EDGE_CURVE('',#1910,#2990,#3050,.T.);
#3070=ORIENTED_EDGE('',*,*,#3060,.T.);
#3080=ORIENTED_EDGE('',*,*,#1920,.T.);
#3090=CARTESIAN_POINT('',(20.,-1.56137310112353E-15,20.));
#3100=DIRECTION('',(0.,-1.,0.));
#3110=DIRECTION('',(-1.,0.,0.));
#3120=AXIS2_PLACEMENT_3D('',#3090,#3100,#3110);
#3130=CIRCLE('',#3120,5.);
#3140=CARTESIAN_POINT('',(20.,-1.56137310112353E-15,25.));
#3150=VERTEX_POINT('',#3140);
#3160=EDGE_CURVE('',#1890,#3150,#3130,.T.);
#3170=ORIENTED_EDGE('',*,*,#3160,.F.);
#3180=CARTESIAN_POINT('',(0.,-1.56137310112353E-15,25.));
#3190=DIRECTION('',(1.,0.,0.));
#3200=VECTOR('',#3190,1.);
#3210=LINE('',#3180,#3200);
#3220=EDGE_CURVE('',#2910,#3150,#3210,.T.);
#3230=ORIENTED_EDGE('',*,*,#3220,.T.);
#3240=EDGE_LOOP('',(#3230,#3170,#3080,#3070,#3010,#2930));
#3250=FACE_OUTER_BOUND('',#3240,.T.);
#3260=ADVANCED_FACE('',(#2820,#3250),#2770,.F.);
#3270=CARTESIAN_POINT('',(-25.5,0.5,-25.));
#3280=DIRECTION('',(0.,0.,1.));
#3290=DIRECTION('',(1.,0.,0.));
#3300=AXIS2_PLACEMENT_3D('',#3270,#3280,#3290);
#3310=PLANE('',#3300);
#3320=ORIENTED_EDGE('',*,*,#230,.T.);
#3330=EDGE_CURVE('',#220,#130,#200,.T.);
#3340=ORIENTED_EDGE('',*,*,#3330,.T.);
#3350=EDGE_LOOP('',(#3340,#3320));
#3360=FACE_BOUND('',#3350,.T.);
#3370=CARTESIAN_POINT('',(-25.,0.,-25.));
#3380=DIRECTION('',(0.,1.,0.));
#3390=VECTOR('',#3380,1.);
#3400=LINE('',#3370,#3390);
#3410=CARTESIAN_POINT('',(-25.,-45.,-25.));
#3420=VERTEX_POINT('',#3410);
#3430=EDGE_CURVE('',#3420,#2990,#3400,.T.);
#3440=ORIENTED_EDGE('',*,*,#3430,.T.);
#3450=CARTESIAN_POINT('',(-20.,-45.,-25.));
#3460=DIRECTION('',(0.,0.,-1.));
#3470=DIRECTION('',(-1.,0.,0.));
#3480=AXIS2_PLACEMENT_3D('',#3450,#3460,#3470);
#3490=CIRCLE('',#3480,5.);
#3500=EDGE_CURVE('',#1670,#3420,#3490,.T.);
#3510=ORIENTED_EDGE('',*,*,#3500,.T.);
#3520=ORIENTED_EDGE('',*,*,#1680,.T.);
#3530=CARTESIAN_POINT('',(20.,-45.,-25.));
#3540=DIRECTION('',(0.,0.,1.));
#3550=DIRECTION('',(1.,0.,0.));
#3560=AXIS2_PLACEMENT_3D('',#3530,#3540,#3550);
#3570=CIRCLE('',#3560,5.);
#3580=EDGE_CURVE('',#1590,#1990,#3570,.T.);
#3590=ORIENTED_EDGE('',*,*,#3580,.F.);
#3600=ORIENTED_EDGE('',*,*,#2000,.F.);
#3610=ORIENTED_EDGE('',*,*,#3060,.F.);
#3620=EDGE_LOOP('',(#3610,#3600,#3590,#3520,#3510,#3440));
#3630=FACE_OUTER_BOUND('',#3620,.T.);
#3640=ADVANCED_FACE('',(#3360,#3630),#3310,.F.);
#3650=CARTESIAN_POINT('',(-25.,-50.5,-25.5));
#3660=DIRECTION('',(1.,0.,0.));
#3670=DIRECTION('',(0.,-1.,0.));
#3680=AXIS2_PLACEMENT_3D('',#3650,#3660,#3670);
#3690=PLANE('',#3680);
#3700=ORIENTED_EDGE('',*,*,#2420,.F.);
#3710=ORIENTED_EDGE('',*,*,#1370,.F.);
#3720=CARTESIAN_POINT('',(-25.,-45.,0.));
#3730=DIRECTION('',(0.,0.,-1.));
#3740=VECTOR('',#3730,1.);
#3750=LINE('',#3720,#3740);
#3760=EDGE_CURVE('',#1280,#3420,#3750,.T.);
#3770=ORIENTED_EDGE('',*,*,#3760,.F.);
#3780=ORIENTED_EDGE('',*,*,#3430,.F.);
#3790=ORIENTED_EDGE('',*,*,#3000,.F.);
#3800=CARTESIAN_POINT('',(-25.,0.,20.));
#3810=DIRECTION('',(0.,1.,0.));
#3820=VECTOR('',#3810,1.);
#3830=LINE('',#3800,#3820);
#3840=EDGE_CURVE('',#2410,#2890,#3830,.T.);
#3850=ORIENTED_EDGE('',*,*,#3840,.T.);
#3860=EDGE_LOOP('',(#3850,#3790,#3780,#3770,#3710,#3700));
#3870=FACE_OUTER_BOUND('',#3860,.T.);
#3880=ADVANCED_FACE('',(#3870),#3690,.F.);
#3890=CARTESIAN_POINT('',(-25.5,-6.06,25.));
#3900=DIRECTION('',(0.,0.,-1.));
#3910=DIRECTION('',(-1.,0.,0.));
#3920=AXIS2_PLACEMENT_3D('',#3890,#3900,#3910);
#3930=PLANE('',#3920);
#3940=CARTESIAN_POINT('',(20.,0.,25.));
#3950=DIRECTION('',(0.,1.,0.));
#3960=VECTOR('',#3950,1.);
#3970=LINE('',#3940,#3960);
#3980=EDGE_CURVE('',#2580,#3150,#3970,.T.);
#3990=ORIENTED_EDGE('',*,*,#3980,.T.);
#4000=ORIENTED_EDGE('',*,*,#2590,.F.);
#4010=CARTESIAN_POINT('',(-20.,0.,25.));
#4020=DIRECTION('',(0.,1.,0.));
#4030=VECTOR('',#4020,1.);
#4040=LINE('',#4010,#4030);
#4050=EDGE_CURVE('',#2500,#2910,#4040,.T.);
#4060=ORIENTED_EDGE('',*,*,#4050,.F.);
#4070=ORIENTED_EDGE('',*,*,#3220,.F.);
#4080=EDGE_LOOP('',(#4070,#4060,#4000,#3990));
#4090=FACE_OUTER_BOUND('',#4080,.T.);
#4100=ADVANCED_FACE('',(#4090),#3930,.F.);
#4110=CARTESIAN_POINT('',(20.,0.,20.));
#4120=DIRECTION('',(0.,-1.,0.));
#4130=DIRECTION('',(-1.,0.,0.));
#4140=AXIS2_PLACEMENT_3D('',#4110,#4120,#4130);
#4150=CYLINDRICAL_SURFACE('',#4140,5.);
#4160=ORIENTED_EDGE('',*,*,#2660,.F.);
#4170=ORIENTED_EDGE('',*,*,#3980,.F.);
#4180=ORIENTED_EDGE('',*,*,#3160,.T.);
#4190=ORIENTED_EDGE('',*,*,#2210,.T.);
#4200=EDGE_LOOP('',(#4190,#4180,#4170,#4160));
#4210=FACE_OUTER_BOUND('',#4200,.T.);
#4220=ADVANCED_FACE('',(#4210),#4150,.T.);
#4230=CARTESIAN_POINT('',(20.,-45.,0.));
#4240=DIRECTION('',(0.,0.,1.));
#4250=DIRECTION('',(1.,0.,0.));
#4260=AXIS2_PLACEMENT_3D('',#4230,#4240,#4250);
#4270=CYLINDRICAL_SURFACE('',#4260,5.);
#4280=ORIENTED_EDGE('',*,*,#1120,.F.);
#4290=ORIENTED_EDGE('',*,*,#2060,.F.);
#4300=ORIENTED_EDGE('',*,*,#3580,.T.);
#4310=ORIENTED_EDGE('',*,*,#1600,.T.);
#4320=EDGE_LOOP('',(#4310,#4300,#4290,#4280));
#4330=FACE_OUTER_BOUND('',#4320,.T.);
#4340=ADVANCED_FACE('',(#4330),#4270,.T.);
#4350=CARTESIAN_POINT('',(-20.,-45.,0.));
#4360=DIRECTION('',(0.,0.,-1.));
#4370=DIRECTION('',(-1.,0.,0.));
#4380=AXIS2_PLACEMENT_3D('',#4350,#4360,#4370);
#4390=CYLINDRICAL_SURFACE('',#4380,5.);
#4400=ORIENTED_EDGE('',*,*,#3500,.F.);
#4410=ORIENTED_EDGE('',*,*,#3760,.T.);
#4420=ORIENTED_EDGE('',*,*,#1290,.T.);
#4430=ORIENTED_EDGE('',*,*,#1740,.F.);
#4440=EDGE_LOOP('',(#4430,#4420,#4410,#4400));
#4450=FACE_OUTER_BOUND('',#4440,.T.);
#4460=ADVANCED_FACE('',(#4450),#4390,.T.);
#4470=CARTESIAN_POINT('',(-20.,0.,20.));
#4480=DIRECTION('',(0.,1.,0.));
#4490=DIRECTION('',(1.,0.,0.));
#4500=AXIS2_PLACEMENT_3D('',#4470,#4480,#4490);
#4510=CYLINDRICAL_SURFACE('',#4500,5.);
#4520=ORIENTED_EDGE('',*,*,#2920,.F.);
#4530=ORIENTED_EDGE('',*,*,#4050,.T.);
#4540=ORIENTED_EDGE('',*,*,#2510,.T.);
#4550=ORIENTED_EDGE('',*,*,#3840,.F.);
#4560=EDGE_LOOP('',(#4550,#4540,#4530,#4520));
#4570=FACE_OUTER_BOUND('',#4560,.T.);
#4580=ADVANCED_FACE('',(#4570),#4510,.T.);
#4590=CARTESIAN_POINT('',(-1.55939759085374E-31,-25.,-18.94));
#4600=DIRECTION('',(0.,0.,-1.));
#4610=DIRECTION('',(-1.,0.,0.));
#4620=AXIS2_PLACEMENT_3D('',#4590,#4600,#4610);
#4630=CYLINDRICAL_SURFACE('',#4620,4.5);
#4640=ORIENTED_EDGE('',*,*,#140,.T.);
#4650=ORIENTED_EDGE('',*,*,#900,.F.);
#4660=ORIENTED_EDGE('',*,*,#310,.F.);
#4670=ORIENTED_EDGE('',*,*,#3330,.F.);
#4680=EDGE_LOOP('',(#4670,#4660,#4650,#4640));
#4690=FACE_OUTER_BOUND('',#4680,.T.);
#4700=ADVANCED_FACE('',(#4690),#4630,.F.);
#4710=CARTESIAN_POINT('',(-6.0185931749137E-32,0.0599999999999996,
-3.01561101627456E-16));
#4720=DIRECTION('',(0.,-1.,0.));
#4730=DIRECTION('',(-1.,0.,0.));
#4740=AXIS2_PLACEMENT_3D('',#4710,#4720,#4730);
#4750=CYLINDRICAL_SURFACE('',#4740,4.5);
#4760=ORIENTED_EDGE('',*,*,#560,.T.);
#4770=ORIENTED_EDGE('',*,*,#2780,.F.);
#4780=ORIENTED_EDGE('',*,*,#730,.F.);
#4790=ORIENTED_EDGE('',*,*,#2320,.F.);
#4800=EDGE_LOOP('',(#4790,#4780,#4770,#4760));
#4810=FACE_OUTER_BOUND('',#4800,.T.);
#4820=ADVANCED_FACE('',(#4810),#4750,.F.);
#4830=CLOSED_SHELL('',(#420,#840,#1470,#1780,#2250,#2720,#3260,#3640,
#3880,#4100,#4220,#4340,#4460,#4580,#4700,#4820));
#4840=MANIFOLD_SOLID_BREP('',#4830);
#4850=CARTESIAN_POINT('',(0.,0.,0.));
#4860=DIRECTION('',(0.,0.,1.));
#4870=DIRECTION('',(1.,0.,0.));
#4880=AXIS2_PLACEMENT_3D('',#4850,#4860,#4870);
#4890=APPLICATION_CONTEXT(' ');
#4900=APPLICATION_PROTOCOL_DEFINITION(' ','automotive_design',1998,#4890
);
#4910=PRODUCT_CONTEXT('',#4890,'mechanical');
#4920=PRODUCT_DEFINITION_CONTEXT('part definition',#4890,'design');
#4930=PRODUCT('Haltewinkel-MMS-55_50x50x50x6_55.0205_PX176169',
'Haltewinkel-MMS-55_50x50x50x6_55.0205_PX176169','',(#4910));
#4940=PRODUCT_RELATED_PRODUCT_CATEGORY('part',' ',(#4930));
#4950=PRODUCT_DEFINITION_FORMATION_WITH_SPECIFIED_SOURCE('','',#4930,
.BOUGHT.);
#4960=PRODUCT_DEFINITION('',' ',#4950,#4920);
#4970=PRODUCT_DEFINITION_SHAPE('','',#4960);
#4980=DIMENSIONAL_EXPONENTS(1.,0.,0.,0.,0.,0.,0.);
#4990=DIMENSIONAL_EXPONENTS(0.,0.,0.,0.,0.,0.,0.);
#5000=DIMENSIONAL_EXPONENTS(0.,0.,0.,0.,0.,0.,0.);
#5010=(LENGTH_UNIT() NAMED_UNIT(*) SI_UNIT(.MILLI.,.METRE.));
#5020=(NAMED_UNIT(*) PLANE_ANGLE_UNIT() SI_UNIT($,.RADIAN.));
#5030=(NAMED_UNIT(*) SI_UNIT($,.STERADIAN.) SOLID_ANGLE_UNIT());
#5040=(GEOMETRIC_REPRESENTATION_CONTEXT(3) 
GLOBAL_UNCERTAINTY_ASSIGNED_CONTEXT((#5050)) 
GLOBAL_UNIT_ASSIGNED_CONTEXT((#5010,#5020,#5030)) REPRESENTATION_CONTEXT
('',''));
#5050=UNCERTAINTY_MEASURE_WITH_UNIT(LENGTH_MEASURE(1.E-6),#5010,
'distance_accuracy_value','maximum gap value');
#5060=ADVANCED_BREP_SHAPE_REPRESENTATION('',(#4880,#4840),#5040);
#5070=SHAPE_DEFINITION_REPRESENTATION(#4970,#5060);
#5080=COLOUR_RGB('',0.690196096897125,0.886274576187134,1.);
#5090=FILL_AREA_STYLE_COLOUR('',#5080);
#5100=FILL_AREA_STYLE('',(#5090));
#5110=SURFACE_STYLE_FILL_AREA(#5100);
#5120=SURFACE_SIDE_STYLE('',(#5110));
#5130=SURFACE_STYLE_USAGE(.BOTH.,#5120);
#5140=PRESENTATION_STYLE_ASSIGNMENT((#5130));
#5150=STYLED_ITEM('',(#5140),#4840);
#5160=DRAUGHTING_MODEL('',(#5150),#5040);
ENDSEC;
END-ISO-10303-21;
