ISO-10303-21;
HEADER;
FILE_DESCRIPTION(('Creo Elements/Direct Modeling STEP Export'),'2;1');
FILE_NAME(
'//KR-CAD2/PhoenixTemp/karl.letzgus/Konvertierung/55.0370_Abschlussplatt
e-MMS-55_50x50x8.stp','2022-03-21T 8:08:48',(''),(''),
'PTC Creo Elements/Direct Modeling STEP processor for AP214 (Solid Model
)',
'PTC Creo Elements/Direct Modeling 19.0C  15-Aug-2015 (C) Parametric Tec
hnology GmbH','');
FILE_SCHEMA(('AUTOMOTIVE_DESIGN { 1 0 10303 214 1 1 1 1 }'));
ENDSEC;
DATA;
#10=CARTESIAN_POINT('',(35.,0.0800000000000072,35.));
#20=DIRECTION('',(0.,-1.,0.));
#30=DIRECTION('',(-1.,0.,0.));
#40=AXIS2_PLACEMENT_3D('',#10,#20,#30);
#50=CYLINDRICAL_SURFACE('',#40,4.15);
#60=CARTESIAN_POINT('',(39.15,0.0800000000000072,35.));
#70=DIRECTION('',(0.,-1.,0.));
#80=VECTOR('',#70,1.);
#90=LINE('',#60,#80);
#100=CARTESIAN_POINT('',(39.15,6.42541575501809E-15,35.));
#110=VERTEX_POINT('',#100);
#120=CARTESIAN_POINT('',(39.15,-7.99999999999999,35.));
#130=VERTEX_POINT('',#120);
#140=EDGE_CURVE('',#110,#130,#90,.T.);
#150=ORIENTED_EDGE('',*,*,#140,.F.);
#160=CARTESIAN_POINT('',(35.,-8.,35.));
#170=DIRECTION('',(0.,1.,0.));
#180=DIRECTION('',(-1.,0.,0.));
#190=AXIS2_PLACEMENT_3D('',#160,#170,#180);
#200=CIRCLE('',#190,4.15);
#210=CARTESIAN_POINT('',(30.85,-8.,35.));
#220=VERTEX_POINT('',#210);
#230=EDGE_CURVE('',#130,#220,#200,.T.);
#240=ORIENTED_EDGE('',*,*,#230,.F.);
#250=CARTESIAN_POINT('',(30.85,0.0800000000000072,35.));
#260=DIRECTION('',(0.,-1.,0.));
#270=VECTOR('',#260,1.);
#280=LINE('',#250,#270);
#290=CARTESIAN_POINT('',(30.85,-4.85722573273506E-16,35.));
#300=VERTEX_POINT('',#290);
#310=EDGE_CURVE('',#300,#220,#280,.T.);
#320=ORIENTED_EDGE('',*,*,#310,.T.);
#330=CARTESIAN_POINT('',(35.,-4.85722573273506E-16,35.));
#340=DIRECTION('',(0.,-1.,0.));
#350=DIRECTION('',(-1.,0.,0.));
#360=AXIS2_PLACEMENT_3D('',#330,#340,#350);
#370=CIRCLE('',#360,4.15);
#380=EDGE_CURVE('',#300,#110,#370,.T.);
#390=ORIENTED_EDGE('',*,*,#380,.F.);
#400=EDGE_LOOP('',(#390,#320,#240,#150));
#410=FACE_OUTER_BOUND('',#400,.T.);
#420=ADVANCED_FACE('',(#410),#50,.F.);
#430=CARTESIAN_POINT('',(35.,0.0800000000000018,-6.96999810376813E-16));
#440=DIRECTION('',(0.,-1.,0.));
#450=DIRECTION('',(-1.,0.,0.));
#460=AXIS2_PLACEMENT_3D('',#430,#440,#450);
#470=CYLINDRICAL_SURFACE('',#460,4.15);
#480=CARTESIAN_POINT('',(30.85,0.0800000000000018,-6.96999810376813E-16)
);
#490=DIRECTION('',(0.,-1.,0.));
#500=VECTOR('',#490,1.);
#510=LINE('',#480,#500);
#520=CARTESIAN_POINT('',(30.85,-2.66453525910038E-15,
-6.96999810376813E-16));
#530=VERTEX_POINT('',#520);
#540=CARTESIAN_POINT('',(30.85,-8.,-6.96999810376813E-16));
#550=VERTEX_POINT('',#540);
#560=EDGE_CURVE('',#530,#550,#510,.T.);
#570=ORIENTED_EDGE('',*,*,#560,.F.);
#580=CARTESIAN_POINT('',(35.,-8.,-6.96999810376813E-16));
#590=DIRECTION('',(0.,1.,0.));
#600=DIRECTION('',(-1.,0.,0.));
#610=AXIS2_PLACEMENT_3D('',#580,#590,#600);
#620=CIRCLE('',#610,4.15);
#630=CARTESIAN_POINT('',(39.15,-8.,-1.20522823202296E-15));
#640=VERTEX_POINT('',#630);
#650=EDGE_CURVE('',#550,#640,#620,.T.);
#660=ORIENTED_EDGE('',*,*,#650,.F.);
#670=CARTESIAN_POINT('',(39.15,0.0800000000000018,-1.20522823202296E-15)
);
#680=DIRECTION('',(0.,-1.,0.));
#690=VECTOR('',#680,1.);
#700=LINE('',#670,#690);
#710=CARTESIAN_POINT('',(39.15,-4.85722573273506E-16,
-1.20522823202296E-15));
#720=VERTEX_POINT('',#710);
#730=EDGE_CURVE('',#720,#640,#700,.T.);
#740=ORIENTED_EDGE('',*,*,#730,.T.);
#750=CARTESIAN_POINT('',(35.,-4.85722573273506E-16,-6.96999810376813E-16
));
#760=DIRECTION('',(0.,-1.,0.));
#770=DIRECTION('',(-1.,0.,0.));
#780=AXIS2_PLACEMENT_3D('',#750,#760,#770);
#790=CIRCLE('',#780,4.15);
#800=EDGE_CURVE('',#720,#530,#790,.T.);
#810=ORIENTED_EDGE('',*,*,#800,.F.);
#820=EDGE_LOOP('',(#810,#740,#660,#570));
#830=FACE_OUTER_BOUND('',#820,.T.);
#840=ADVANCED_FACE('',(#830),#470,.F.);
#850=CARTESIAN_POINT('',(0.,0.0800000000000072,35.));
#860=DIRECTION('',(0.,-1.,0.));
#870=DIRECTION('',(-1.,0.,0.));
#880=AXIS2_PLACEMENT_3D('',#850,#860,#870);
#890=CYLINDRICAL_SURFACE('',#880,4.15);
#900=CARTESIAN_POINT('',(4.15,0.0800000000000072,35.));
#910=DIRECTION('',(0.,-1.,0.));
#920=VECTOR('',#910,1.);
#930=LINE('',#900,#920);
#940=CARTESIAN_POINT('',(4.15,6.42541575501809E-15,35.));
#950=VERTEX_POINT('',#940);
#960=CARTESIAN_POINT('',(4.15,-8.,35.));
#970=VERTEX_POINT('',#960);
#980=EDGE_CURVE('',#950,#970,#930,.T.);
#990=ORIENTED_EDGE('',*,*,#980,.F.);
#1000=CARTESIAN_POINT('',(0.,-8.,35.));
#1010=DIRECTION('',(0.,1.,0.));
#1020=DIRECTION('',(-1.,0.,0.));
#1030=AXIS2_PLACEMENT_3D('',#1000,#1010,#1020);
#1040=CIRCLE('',#1030,4.15);
#1050=CARTESIAN_POINT('',(-4.15,-7.99999999999999,35.));
#1060=VERTEX_POINT('',#1050);
#1070=EDGE_CURVE('',#970,#1060,#1040,.T.);
#1080=ORIENTED_EDGE('',*,*,#1070,.F.);
#1090=CARTESIAN_POINT('',(-4.15,0.0800000000000072,35.));
#1100=DIRECTION('',(0.,-1.,0.));
#1110=VECTOR('',#1100,1.);
#1120=LINE('',#1090,#1110);
#1130=CARTESIAN_POINT('',(-4.15,-4.85722573273506E-16,35.));
#1140=VERTEX_POINT('',#1130);
#1150=EDGE_CURVE('',#1140,#1060,#1120,.T.);
#1160=ORIENTED_EDGE('',*,*,#1150,.T.);
#1170=CARTESIAN_POINT('',(0.,-4.85722573273506E-16,35.));
#1180=DIRECTION('',(0.,-1.,0.));
#1190=DIRECTION('',(-1.,0.,0.));
#1200=AXIS2_PLACEMENT_3D('',#1170,#1180,#1190);
#1210=CIRCLE('',#1200,4.15);
#1220=EDGE_CURVE('',#1140,#950,#1210,.T.);
#1230=ORIENTED_EDGE('',*,*,#1220,.F.);
#1240=EDGE_LOOP('',(#1230,#1160,#1080,#990));
#1250=FACE_OUTER_BOUND('',#1240,.T.);
#1260=ADVANCED_FACE('',(#1250),#890,.F.);
#1270=CARTESIAN_POINT('',(9.45056688851894E-32,0.0800000000000018,
-4.32409276216456E-16));
#1280=DIRECTION('',(0.,-1.,0.));
#1290=DIRECTION('',(-1.,0.,0.));
#1300=AXIS2_PLACEMENT_3D('',#1270,#1280,#1290);
#1310=CYLINDRICAL_SURFACE('',#1300,4.15);
#1320=CARTESIAN_POINT('',(-4.15,0.0800000000000018,-4.32409276216456E-16
));
#1330=DIRECTION('',(0.,-1.,0.));
#1340=VECTOR('',#1330,1.);
#1350=LINE('',#1320,#1340);
#1360=CARTESIAN_POINT('',(-4.15,-2.66453525910038E-15,
-4.32409276216456E-16));
#1370=VERTEX_POINT('',#1360);
#1380=CARTESIAN_POINT('',(-4.15,-8.,-4.32409276216456E-16));
#1390=VERTEX_POINT('',#1380);
#1400=EDGE_CURVE('',#1370,#1390,#1350,.T.);
#1410=ORIENTED_EDGE('',*,*,#1400,.F.);
#1420=CARTESIAN_POINT('',(9.45056688851894E-32,-8.,-4.32409276216456E-16
));
#1430=DIRECTION('',(0.,1.,0.));
#1440=DIRECTION('',(-1.,0.,0.));
#1450=AXIS2_PLACEMENT_3D('',#1420,#1430,#1440);
#1460=CIRCLE('',#1450,4.15);
#1470=CARTESIAN_POINT('',(4.15,-8.,-9.40637697862608E-16));
#1480=VERTEX_POINT('',#1470);
#1490=EDGE_CURVE('',#1390,#1480,#1460,.T.);
#1500=ORIENTED_EDGE('',*,*,#1490,.F.);
#1510=CARTESIAN_POINT('',(4.15,0.0800000000000018,-9.40637697862608E-16)
);
#1520=DIRECTION('',(0.,-1.,0.));
#1530=VECTOR('',#1520,1.);
#1540=LINE('',#1510,#1530);
#1550=CARTESIAN_POINT('',(4.15,-4.85722573273506E-16,
-9.40637697862608E-16));
#1560=VERTEX_POINT('',#1550);
#1570=EDGE_CURVE('',#1560,#1480,#1540,.T.);
#1580=ORIENTED_EDGE('',*,*,#1570,.T.);
#1590=CARTESIAN_POINT('',(9.45056688851894E-32,-4.85722573273506E-16,
-4.32409276216456E-16));
#1600=DIRECTION('',(0.,-1.,0.));
#1610=DIRECTION('',(-1.,0.,0.));
#1620=AXIS2_PLACEMENT_3D('',#1590,#1600,#1610);
#1630=CIRCLE('',#1620,4.15);
#1640=EDGE_CURVE('',#1560,#1370,#1630,.T.);
#1650=ORIENTED_EDGE('',*,*,#1640,.F.);
#1660=EDGE_LOOP('',(#1650,#1580,#1500,#1410));
#1670=FACE_OUTER_BOUND('',#1660,.T.);
#1680=ADVANCED_FACE('',(#1670),#1310,.F.);
#1690=CARTESIAN_POINT('',(-6.50000000000005,0.0800000000000001,
-6.49999999999992));
#1700=DIRECTION('',(0.,-1.,0.));
#1710=DIRECTION('',(-1.,0.,0.));
#1720=AXIS2_PLACEMENT_3D('',#1690,#1700,#1710);
#1730=CYLINDRICAL_SURFACE('',#1720,0.999999999999998);
#1740=CARTESIAN_POINT('',(-6.50000000000005,-8.,-6.49999999999992));
#1750=DIRECTION('',(0.,1.,0.));
#1760=DIRECTION('',(-1.,0.,0.));
#1770=AXIS2_PLACEMENT_3D('',#1740,#1750,#1760);
#1780=CIRCLE('',#1770,0.999999999999998);
#1790=CARTESIAN_POINT('',(-6.5,-8.,-7.49999999999997));
#1800=VERTEX_POINT('',#1790);
#1810=CARTESIAN_POINT('',(-7.50000000000005,-8.,-6.49999999999991));
#1820=VERTEX_POINT('',#1810);
#1830=EDGE_CURVE('',#1800,#1820,#1780,.T.);
#1840=ORIENTED_EDGE('',*,*,#1830,.T.);
#1850=CARTESIAN_POINT('',(-6.5,-4.5922738268339E-16,-7.49999999999997));
#1860=DIRECTION('',(0.,-1.,0.));
#1870=VECTOR('',#1860,1.);
#1880=LINE('',#1850,#1870);
#1890=CARTESIAN_POINT('',(-6.5,-4.5922738268339E-16,-7.49999999999997));
#1900=VERTEX_POINT('',#1890);
#1910=EDGE_CURVE('',#1900,#1800,#1880,.T.);
#1920=ORIENTED_EDGE('',*,*,#1910,.T.);
#1930=CARTESIAN_POINT('',(-6.50000000000005,-4.85722573273506E-16,
-6.49999999999992));
#1940=DIRECTION('',(0.,-1.,0.));
#1950=DIRECTION('',(-1.,0.,0.));
#1960=AXIS2_PLACEMENT_3D('',#1930,#1940,#1950);
#1970=CIRCLE('',#1960,0.999999999999998);
#1980=CARTESIAN_POINT('',(-7.50000000000005,-3.97997064992267E-16,
-6.49999999999991));
#1990=VERTEX_POINT('',#1980);
#2000=EDGE_CURVE('',#1990,#1900,#1970,.T.);
#2010=ORIENTED_EDGE('',*,*,#2000,.T.);
#2020=CARTESIAN_POINT('',(-7.50000000000005,-3.97997064992267E-16,
-6.49999999999991));
#2030=DIRECTION('',(0.,-1.,0.));
#2040=VECTOR('',#2030,1.);
#2050=LINE('',#2020,#2040);
#2060=EDGE_CURVE('',#1990,#1820,#2050,.T.);
#2070=ORIENTED_EDGE('',*,*,#2060,.F.);
#2080=EDGE_LOOP('',(#2070,#2010,#1920,#1840));
#2090=FACE_OUTER_BOUND('',#2080,.T.);
#2100=ADVANCED_FACE('',(#2090),#1730,.T.);
#2110=CARTESIAN_POINT('',(-7.50000000000005,0.0800000000000018,
-6.97999999999992));
#2120=DIRECTION('',(-1.,0.,0.));
#2130=DIRECTION('',(0.,1.,0.));
#2140=AXIS2_PLACEMENT_3D('',#2110,#2120,#2130);
#2150=PLANE('',#2140);
#2160=ORIENTED_EDGE('',*,*,#2060,.T.);
#2170=CARTESIAN_POINT('',(-7.50000000000005,-4.89842541528949E-16,0.));
#2180=DIRECTION('',(0.,0.,-1.));
#2190=VECTOR('',#2180,1.);
#2200=LINE('',#2170,#2190);
#2210=CARTESIAN_POINT('',(-7.50000000000005,2.54105818418144E-15,
41.5000000000001));
#2220=VERTEX_POINT('',#2210);
#2230=EDGE_CURVE('',#2220,#1990,#2200,.T.);
#2240=ORIENTED_EDGE('',*,*,#2230,.T.);
#2250=CARTESIAN_POINT('',(-7.50000000000005,2.54105818418144E-15,
41.5000000000001));
#2260=DIRECTION('',(0.,-1.,0.));
#2270=VECTOR('',#2260,1.);
#2280=LINE('',#2250,#2270);
#2290=CARTESIAN_POINT('',(-7.50000000000005,-8.,41.5000000000001));
#2300=VERTEX_POINT('',#2290);
#2310=EDGE_CURVE('',#2220,#2300,#2280,.T.);
#2320=ORIENTED_EDGE('',*,*,#2310,.F.);
#2330=CARTESIAN_POINT('',(-7.50000000000005,-8.,0.));
#2340=DIRECTION('',(0.,0.,1.));
#2350=VECTOR('',#2340,1.);
#2360=LINE('',#2330,#2350);
#2370=EDGE_CURVE('',#1820,#2300,#2360,.T.);
#2380=ORIENTED_EDGE('',*,*,#2370,.T.);
#2390=EDGE_LOOP('',(#2380,#2320,#2240,#2160));
#2400=FACE_OUTER_BOUND('',#2390,.T.);
#2410=ADVANCED_FACE('',(#2400),#2150,.T.);
#2420=CARTESIAN_POINT('',(-6.50000000000002,0.0800000000000018,
41.5000000000001));
#2430=DIRECTION('',(0.,-1.,0.));
#2440=DIRECTION('',(-1.,0.,0.));
#2450=AXIS2_PLACEMENT_3D('',#2420,#2430,#2440);
#2460=CYLINDRICAL_SURFACE('',#2450,1.00000000000002);
#2470=CARTESIAN_POINT('',(-6.50000000000002,-8.,41.5000000000001));
#2480=DIRECTION('',(0.,1.,0.));
#2490=DIRECTION('',(-1.,0.,0.));
#2500=AXIS2_PLACEMENT_3D('',#2470,#2480,#2490);
#2510=CIRCLE('',#2500,1.00000000000002);
#2520=CARTESIAN_POINT('',(-6.50000000000005,-8.,42.5000000000001));
#2530=VERTEX_POINT('',#2520);
#2540=EDGE_CURVE('',#2300,#2530,#2510,.T.);
#2550=ORIENTED_EDGE('',*,*,#2540,.T.);
#2560=ORIENTED_EDGE('',*,*,#2310,.T.);
#2570=CARTESIAN_POINT('',(-6.50000000000002,-4.85722573273506E-16,
41.5000000000001));
#2580=DIRECTION('',(0.,-1.,0.));
#2590=DIRECTION('',(-1.,0.,0.));
#2600=AXIS2_PLACEMENT_3D('',#2570,#2580,#2590);
#2610=CIRCLE('',#2600,1.00000000000002);
#2620=CARTESIAN_POINT('',(-6.50000000000005,2.60228850187256E-15,
42.5000000000001));
#2630=VERTEX_POINT('',#2620);
#2640=EDGE_CURVE('',#2630,#2220,#2610,.T.);
#2650=ORIENTED_EDGE('',*,*,#2640,.T.);
#2660=CARTESIAN_POINT('',(-6.50000000000005,2.60228850187256E-15,
42.5000000000001));
#2670=DIRECTION('',(0.,-1.,0.));
#2680=VECTOR('',#2670,1.);
#2690=LINE('',#2660,#2680);
#2700=EDGE_CURVE('',#2630,#2530,#2690,.T.);
#2710=ORIENTED_EDGE('',*,*,#2700,.F.);
#2720=EDGE_LOOP('',(#2710,#2650,#2560,#2550));
#2730=FACE_OUTER_BOUND('',#2720,.T.);
#2740=ADVANCED_FACE('',(#2730),#2460,.T.);
#2750=CARTESIAN_POINT('',(-6.98000000000005,0.0800000000000027,
42.5000000000001));
#2760=DIRECTION('',(0.,0.,1.));
#2770=DIRECTION('',(1.,0.,0.));
#2780=AXIS2_PLACEMENT_3D('',#2750,#2760,#2770);
#2790=PLANE('',#2780);
#2800=ORIENTED_EDGE('',*,*,#2700,.T.);
#2810=CARTESIAN_POINT('',(0.,-4.89842541528949E-16,42.5000000000001));
#2820=DIRECTION('',(-1.,0.,0.));
#2830=VECTOR('',#2820,1.);
#2840=LINE('',#2810,#2830);
#2850=CARTESIAN_POINT('',(41.5,2.60228850187256E-15,42.5000000000001));
#2860=VERTEX_POINT('',#2850);
#2870=EDGE_CURVE('',#2860,#2630,#2840,.T.);
#2880=ORIENTED_EDGE('',*,*,#2870,.T.);
#2890=CARTESIAN_POINT('',(41.5,2.60228850187256E-15,42.5000000000001));
#2900=DIRECTION('',(0.,-1.,0.));
#2910=VECTOR('',#2900,1.);
#2920=LINE('',#2890,#2910);
#2930=CARTESIAN_POINT('',(41.5,-8.,42.5000000000001));
#2940=VERTEX_POINT('',#2930);
#2950=EDGE_CURVE('',#2860,#2940,#2920,.T.);
#2960=ORIENTED_EDGE('',*,*,#2950,.F.);
#2970=CARTESIAN_POINT('',(0.,-8.,42.5000000000001));
#2980=DIRECTION('',(1.,0.,0.));
#2990=VECTOR('',#2980,1.);
#3000=LINE('',#2970,#2990);
#3010=EDGE_CURVE('',#2530,#2940,#3000,.T.);
#3020=ORIENTED_EDGE('',*,*,#3010,.T.);
#3030=EDGE_LOOP('',(#3020,#2960,#2880,#2800));
#3040=FACE_OUTER_BOUND('',#3030,.T.);
#3050=ADVANCED_FACE('',(#3040),#2790,.T.);
#3060=CARTESIAN_POINT('',(41.5,0.0800000000000018,41.5000000000001));
#3070=DIRECTION('',(0.,-1.,0.));
#3080=DIRECTION('',(-1.,0.,0.));
#3090=AXIS2_PLACEMENT_3D('',#3060,#3070,#3080);
#3100=CYLINDRICAL_SURFACE('',#3090,1.00000000000001);
#3110=CARTESIAN_POINT('',(41.5,-8.,41.5000000000001));
#3120=DIRECTION('',(0.,1.,0.));
#3130=DIRECTION('',(-1.,0.,0.));
#3140=AXIS2_PLACEMENT_3D('',#3110,#3120,#3130);
#3150=CIRCLE('',#3140,1.00000000000001);
#3160=CARTESIAN_POINT('',(42.5,-8.,41.5000000000001));
#3170=VERTEX_POINT('',#3160);
#3180=EDGE_CURVE('',#2940,#3170,#3150,.T.);
#3190=ORIENTED_EDGE('',*,*,#3180,.T.);
#3200=ORIENTED_EDGE('',*,*,#2950,.T.);
#3210=CARTESIAN_POINT('',(41.5,-4.85722573273506E-16,41.5000000000001));
#3220=DIRECTION('',(0.,-1.,0.));
#3230=DIRECTION('',(-1.,0.,0.));
#3240=AXIS2_PLACEMENT_3D('',#3210,#3220,#3230);
#3250=CIRCLE('',#3240,1.00000000000001);
#3260=CARTESIAN_POINT('',(42.5,2.54105818418144E-15,41.5000000000001));
#3270=VERTEX_POINT('',#3260);
#3280=EDGE_CURVE('',#3270,#2860,#3250,.T.);
#3290=ORIENTED_EDGE('',*,*,#3280,.T.);
#3300=CARTESIAN_POINT('',(42.5,2.54105818418144E-15,41.5000000000001));
#3310=DIRECTION('',(0.,-1.,0.));
#3320=VECTOR('',#3310,1.);
#3330=LINE('',#3300,#3320);
#3340=EDGE_CURVE('',#3270,#3170,#3330,.T.);
#3350=ORIENTED_EDGE('',*,*,#3340,.F.);
#3360=EDGE_LOOP('',(#3350,#3290,#3200,#3190));
#3370=FACE_OUTER_BOUND('',#3360,.T.);
#3380=ADVANCED_FACE('',(#3370),#3100,.T.);
#3390=CARTESIAN_POINT('',(42.5,-8.08,-6.97999999999998));
#3400=DIRECTION('',(1.,0.,0.));
#3410=DIRECTION('',(0.,-1.,0.));
#3420=AXIS2_PLACEMENT_3D('',#3390,#3400,#3410);
#3430=PLANE('',#3420);
#3440=ORIENTED_EDGE('',*,*,#3340,.T.);
#3450=CARTESIAN_POINT('',(42.5,-4.89842541528949E-16,0.));
#3460=DIRECTION('',(0.,0.,1.));
#3470=VECTOR('',#3460,1.);
#3480=LINE('',#3450,#3470);
#3490=CARTESIAN_POINT('',(42.5,-3.97997064992271E-16,-6.49999999999997))
;
#3500=VERTEX_POINT('',#3490);
#3510=EDGE_CURVE('',#3500,#3270,#3480,.T.);
#3520=ORIENTED_EDGE('',*,*,#3510,.T.);
#3530=CARTESIAN_POINT('',(42.5,-3.97997064992271E-16,-6.49999999999997))
;
#3540=DIRECTION('',(0.,-1.,0.));
#3550=VECTOR('',#3540,1.);
#3560=LINE('',#3530,#3550);
#3570=CARTESIAN_POINT('',(42.5,-8.,-6.49999999999997));
#3580=VERTEX_POINT('',#3570);
#3590=EDGE_CURVE('',#3500,#3580,#3560,.T.);
#3600=ORIENTED_EDGE('',*,*,#3590,.F.);
#3610=CARTESIAN_POINT('',(42.5,-8.,0.));
#3620=DIRECTION('',(0.,0.,-1.));
#3630=VECTOR('',#3620,1.);
#3640=LINE('',#3610,#3630);
#3650=EDGE_CURVE('',#3170,#3580,#3640,.T.);
#3660=ORIENTED_EDGE('',*,*,#3650,.T.);
#3670=EDGE_LOOP('',(#3660,#3600,#3520,#3440));
#3680=FACE_OUTER_BOUND('',#3670,.T.);
#3690=ADVANCED_FACE('',(#3680),#3430,.T.);
#3700=CARTESIAN_POINT('',(41.5,0.0800000000000001,-6.49999999999997));
#3710=DIRECTION('',(0.,-1.,0.));
#3720=DIRECTION('',(-1.,0.,0.));
#3730=AXIS2_PLACEMENT_3D('',#3700,#3710,#3720);
#3740=CYLINDRICAL_SURFACE('',#3730,1.);
#3750=CARTESIAN_POINT('',(41.5,-8.,-6.49999999999997));
#3760=DIRECTION('',(0.,1.,0.));
#3770=DIRECTION('',(-1.,0.,0.));
#3780=AXIS2_PLACEMENT_3D('',#3750,#3760,#3770);
#3790=CIRCLE('',#3780,1.);
#3800=CARTESIAN_POINT('',(41.5,-8.,-7.49999999999997));
#3810=VERTEX_POINT('',#3800);
#3820=EDGE_CURVE('',#3580,#3810,#3790,.T.);
#3830=ORIENTED_EDGE('',*,*,#3820,.T.);
#3840=ORIENTED_EDGE('',*,*,#3590,.T.);
#3850=CARTESIAN_POINT('',(41.5,-4.85722573273506E-16,-6.49999999999997))
;
#3860=DIRECTION('',(0.,-1.,0.));
#3870=DIRECTION('',(-1.,0.,0.));
#3880=AXIS2_PLACEMENT_3D('',#3850,#3860,#3870);
#3890=CIRCLE('',#3880,1.);
#3900=CARTESIAN_POINT('',(41.5,-4.5922738268339E-16,-7.49999999999997));
#3910=VERTEX_POINT('',#3900);
#3920=EDGE_CURVE('',#3910,#3500,#3890,.T.);
#3930=ORIENTED_EDGE('',*,*,#3920,.T.);
#3940=CARTESIAN_POINT('',(41.5,-4.5922738268339E-16,-7.49999999999997));
#3950=DIRECTION('',(0.,-1.,0.));
#3960=VECTOR('',#3950,1.);
#3970=LINE('',#3940,#3960);
#3980=EDGE_CURVE('',#3910,#3810,#3970,.T.);
#3990=ORIENTED_EDGE('',*,*,#3980,.F.);
#4000=EDGE_LOOP('',(#3990,#3930,#3840,#3830));
#4010=FACE_OUTER_BOUND('',#4000,.T.);
#4020=ADVANCED_FACE('',(#4010),#3740,.T.);
#4030=CARTESIAN_POINT('',(-6.98,-8.08,-7.49999999999997));
#4040=DIRECTION('',(0.,0.,-1.));
#4050=DIRECTION('',(-1.,0.,0.));
#4060=AXIS2_PLACEMENT_3D('',#4030,#4040,#4050);
#4070=PLANE('',#4060);
#4080=ORIENTED_EDGE('',*,*,#3980,.T.);
#4090=CARTESIAN_POINT('',(0.,-4.89842541528949E-16,-7.49999999999997));
#4100=DIRECTION('',(1.,0.,0.));
#4110=VECTOR('',#4100,1.);
#4120=LINE('',#4090,#4110);
#4130=EDGE_CURVE('',#1900,#3910,#4120,.T.);
#4140=ORIENTED_EDGE('',*,*,#4130,.T.);
#4150=ORIENTED_EDGE('',*,*,#1910,.F.);
#4160=CARTESIAN_POINT('',(0.,-8.,-7.49999999999997));
#4170=DIRECTION('',(-1.,0.,0.));
#4180=VECTOR('',#4170,1.);
#4190=LINE('',#4160,#4180);
#4200=EDGE_CURVE('',#3810,#1800,#4190,.T.);
#4210=ORIENTED_EDGE('',*,*,#4200,.T.);
#4220=EDGE_LOOP('',(#4210,#4150,#4140,#4080));
#4230=FACE_OUTER_BOUND('',#4220,.T.);
#4240=ADVANCED_FACE('',(#4230),#4070,.T.);
#4250=CARTESIAN_POINT('',(-8.00000000000005,-4.89842541528949E-16,
-7.99999999999997));
#4260=DIRECTION('',(-0.,-1.,-0.));
#4270=DIRECTION('',(-1.,0.,0.));
#4280=AXIS2_PLACEMENT_3D('',#4250,#4260,#4270);
#4290=PLANE('',#4280);
#4300=ORIENTED_EDGE('',*,*,#4130,.F.);
#4310=ORIENTED_EDGE('',*,*,#3920,.F.);
#4320=ORIENTED_EDGE('',*,*,#3510,.F.);
#4330=ORIENTED_EDGE('',*,*,#3280,.F.);
#4340=ORIENTED_EDGE('',*,*,#2870,.F.);
#4350=ORIENTED_EDGE('',*,*,#2640,.F.);
#4360=ORIENTED_EDGE('',*,*,#2230,.F.);
#4370=ORIENTED_EDGE('',*,*,#2000,.F.);
#4380=EDGE_LOOP('',(#4370,#4360,#4350,#4340,#4330,#4320,#4310,#4300));
#4390=FACE_OUTER_BOUND('',#4380,.T.);
#4400=EDGE_CURVE('',#110,#300,#370,.T.);
#4410=ORIENTED_EDGE('',*,*,#4400,.T.);
#4420=ORIENTED_EDGE('',*,*,#380,.T.);
#4430=EDGE_LOOP('',(#4420,#4410));
#4440=FACE_BOUND('',#4430,.T.);
#4450=EDGE_CURVE('',#530,#720,#790,.T.);
#4460=ORIENTED_EDGE('',*,*,#4450,.T.);
#4470=ORIENTED_EDGE('',*,*,#800,.T.);
#4480=EDGE_LOOP('',(#4470,#4460));
#4490=FACE_BOUND('',#4480,.T.);
#4500=EDGE_CURVE('',#950,#1140,#1210,.T.);
#4510=ORIENTED_EDGE('',*,*,#4500,.T.);
#4520=ORIENTED_EDGE('',*,*,#1220,.T.);
#4530=EDGE_LOOP('',(#4520,#4510));
#4540=FACE_BOUND('',#4530,.T.);
#4550=EDGE_CURVE('',#1370,#1560,#1630,.T.);
#4560=ORIENTED_EDGE('',*,*,#4550,.T.);
#4570=ORIENTED_EDGE('',*,*,#1640,.T.);
#4580=EDGE_LOOP('',(#4570,#4560));
#4590=FACE_BOUND('',#4580,.T.);
#4600=ADVANCED_FACE('',(#4390,#4440,#4490,#4540,#4590),#4290,.F.);
#4610=CARTESIAN_POINT('',(-8.00000000000005,-8.,-7.99999999999997));
#4620=DIRECTION('',(-0.,-1.,-0.));
#4630=DIRECTION('',(-1.,0.,0.));
#4640=AXIS2_PLACEMENT_3D('',#4610,#4620,#4630);
#4650=PLANE('',#4640);
#4660=ORIENTED_EDGE('',*,*,#2370,.F.);
#4670=ORIENTED_EDGE('',*,*,#2540,.F.);
#4680=ORIENTED_EDGE('',*,*,#3010,.F.);
#4690=ORIENTED_EDGE('',*,*,#3180,.F.);
#4700=ORIENTED_EDGE('',*,*,#3650,.F.);
#4710=ORIENTED_EDGE('',*,*,#3820,.F.);
#4720=ORIENTED_EDGE('',*,*,#4200,.F.);
#4730=ORIENTED_EDGE('',*,*,#1830,.F.);
#4740=EDGE_LOOP('',(#4730,#4720,#4710,#4700,#4690,#4680,#4670,#4660));
#4750=FACE_OUTER_BOUND('',#4740,.T.);
#4760=ORIENTED_EDGE('',*,*,#230,.T.);
#4770=EDGE_CURVE('',#220,#130,#200,.T.);
#4780=ORIENTED_EDGE('',*,*,#4770,.T.);
#4790=EDGE_LOOP('',(#4780,#4760));
#4800=FACE_BOUND('',#4790,.T.);
#4810=ORIENTED_EDGE('',*,*,#650,.T.);
#4820=EDGE_CURVE('',#640,#550,#620,.T.);
#4830=ORIENTED_EDGE('',*,*,#4820,.T.);
#4840=EDGE_LOOP('',(#4830,#4810));
#4850=FACE_BOUND('',#4840,.T.);
#4860=EDGE_CURVE('',#1060,#970,#1040,.T.);
#4870=ORIENTED_EDGE('',*,*,#4860,.T.);
#4880=ORIENTED_EDGE('',*,*,#1070,.T.);
#4890=EDGE_LOOP('',(#4880,#4870));
#4900=FACE_BOUND('',#4890,.T.);
#4910=EDGE_CURVE('',#1480,#1390,#1460,.T.);
#4920=ORIENTED_EDGE('',*,*,#4910,.T.);
#4930=ORIENTED_EDGE('',*,*,#1490,.T.);
#4940=EDGE_LOOP('',(#4930,#4920));
#4950=FACE_BOUND('',#4940,.T.);
#4960=ADVANCED_FACE('',(#4750,#4800,#4850,#4900,#4950),#4650,.T.);
#4970=CARTESIAN_POINT('',(9.45056688851894E-32,0.0800000000000018,
-4.32409276216456E-16));
#4980=DIRECTION('',(0.,-1.,0.));
#4990=DIRECTION('',(-1.,0.,0.));
#5000=AXIS2_PLACEMENT_3D('',#4970,#4980,#4990);
#5010=CYLINDRICAL_SURFACE('',#5000,4.15);
#5020=ORIENTED_EDGE('',*,*,#4550,.F.);
#5030=ORIENTED_EDGE('',*,*,#1570,.F.);
#5040=ORIENTED_EDGE('',*,*,#4910,.F.);
#5050=ORIENTED_EDGE('',*,*,#1400,.T.);
#5060=EDGE_LOOP('',(#5050,#5040,#5030,#5020));
#5070=FACE_OUTER_BOUND('',#5060,.T.);
#5080=ADVANCED_FACE('',(#5070),#5010,.F.);
#5090=CARTESIAN_POINT('',(35.,0.0800000000000018,-6.96999810376813E-16))
;
#5100=DIRECTION('',(0.,-1.,0.));
#5110=DIRECTION('',(-1.,0.,0.));
#5120=AXIS2_PLACEMENT_3D('',#5090,#5100,#5110);
#5130=CYLINDRICAL_SURFACE('',#5120,4.15);
#5140=ORIENTED_EDGE('',*,*,#560,.T.);
#5150=ORIENTED_EDGE('',*,*,#4450,.F.);
#5160=ORIENTED_EDGE('',*,*,#730,.F.);
#5170=ORIENTED_EDGE('',*,*,#4820,.F.);
#5180=EDGE_LOOP('',(#5170,#5160,#5150,#5140));
#5190=FACE_OUTER_BOUND('',#5180,.T.);
#5200=ADVANCED_FACE('',(#5190),#5130,.F.);
#5210=CARTESIAN_POINT('',(35.,0.0800000000000072,35.));
#5220=DIRECTION('',(0.,-1.,0.));
#5230=DIRECTION('',(-1.,0.,0.));
#5240=AXIS2_PLACEMENT_3D('',#5210,#5220,#5230);
#5250=CYLINDRICAL_SURFACE('',#5240,4.15);
#5260=ORIENTED_EDGE('',*,*,#140,.T.);
#5270=ORIENTED_EDGE('',*,*,#4400,.F.);
#5280=ORIENTED_EDGE('',*,*,#310,.F.);
#5290=ORIENTED_EDGE('',*,*,#4770,.F.);
#5300=EDGE_LOOP('',(#5290,#5280,#5270,#5260));
#5310=FACE_OUTER_BOUND('',#5300,.T.);
#5320=ADVANCED_FACE('',(#5310),#5250,.F.);
#5330=CARTESIAN_POINT('',(0.,0.0800000000000072,35.));
#5340=DIRECTION('',(0.,-1.,0.));
#5350=DIRECTION('',(-1.,0.,0.));
#5360=AXIS2_PLACEMENT_3D('',#5330,#5340,#5350);
#5370=CYLINDRICAL_SURFACE('',#5360,4.15);
#5380=ORIENTED_EDGE('',*,*,#4860,.F.);
#5390=ORIENTED_EDGE('',*,*,#980,.T.);
#5400=ORIENTED_EDGE('',*,*,#4500,.F.);
#5410=ORIENTED_EDGE('',*,*,#1150,.F.);
#5420=EDGE_LOOP('',(#5410,#5400,#5390,#5380));
#5430=FACE_OUTER_BOUND('',#5420,.T.);
#5440=ADVANCED_FACE('',(#5430),#5370,.F.);
#5450=CLOSED_SHELL('',(#420,#840,#1260,#1680,#2100,#2410,#2740,#3050,
#3380,#3690,#4020,#4240,#4600,#4960,#5080,#5200,#5320,#5440));
#5460=MANIFOLD_SOLID_BREP('',#5450);
#5470=CARTESIAN_POINT('',(0.,0.,0.));
#5480=DIRECTION('',(0.,0.,1.));
#5490=DIRECTION('',(1.,0.,0.));
#5500=AXIS2_PLACEMENT_3D('',#5470,#5480,#5490);
#5510=APPLICATION_CONTEXT(' ');
#5520=APPLICATION_PROTOCOL_DEFINITION(' ','automotive_design',1998,#5510
);
#5530=PRODUCT_CONTEXT('',#5510,'mechanical');
#5540=PRODUCT_DEFINITION_CONTEXT('part definition',#5510,'design');
#5550=PRODUCT('Abschlussplatte-MMS-55_50x50x8_55.0370_PX176320',
'Abschlussplatte-MMS-55_50x50x8_55.0370_PX176320','',(#5530));
#5560=PRODUCT_RELATED_PRODUCT_CATEGORY('part',' ',(#5550));
#5570=PRODUCT_DEFINITION_FORMATION_WITH_SPECIFIED_SOURCE('','',#5550,
.BOUGHT.);
#5580=PRODUCT_DEFINITION('',' ',#5570,#5540);
#5590=PRODUCT_DEFINITION_SHAPE('','',#5580);
#5600=DIMENSIONAL_EXPONENTS(1.,0.,0.,0.,0.,0.,0.);
#5610=DIMENSIONAL_EXPONENTS(0.,0.,0.,0.,0.,0.,0.);
#5620=DIMENSIONAL_EXPONENTS(0.,0.,0.,0.,0.,0.,0.);
#5630=(LENGTH_UNIT() NAMED_UNIT(*) SI_UNIT(.MILLI.,.METRE.));
#5640=(NAMED_UNIT(*) PLANE_ANGLE_UNIT() SI_UNIT($,.RADIAN.));
#5650=(NAMED_UNIT(*) SI_UNIT($,.STERADIAN.) SOLID_ANGLE_UNIT());
#5660=(GEOMETRIC_REPRESENTATION_CONTEXT(3) 
GLOBAL_UNCERTAINTY_ASSIGNED_CONTEXT((#5670)) 
GLOBAL_UNIT_ASSIGNED_CONTEXT((#5630,#5640,#5650)) REPRESENTATION_CONTEXT
('',''));
#5670=UNCERTAINTY_MEASURE_WITH_UNIT(LENGTH_MEASURE(1.E-6),#5630,
'distance_accuracy_value','maximum gap value');
#5680=ADVANCED_BREP_SHAPE_REPRESENTATION('',(#5500,#5460),#5660);
#5690=SHAPE_DEFINITION_REPRESENTATION(#5590,#5680);
#5700=COLOUR_RGB('',0.690196096897125,0.886274576187134,1.);
#5710=FILL_AREA_STYLE_COLOUR('',#5700);
#5720=FILL_AREA_STYLE('',(#5710));
#5730=SURFACE_STYLE_FILL_AREA(#5720);
#5740=SURFACE_SIDE_STYLE('',(#5730));
#5750=SURFACE_STYLE_USAGE(.BOTH.,#5740);
#5760=PRESENTATION_STYLE_ASSIGNMENT((#5750));
#5770=STYLED_ITEM('',(#5760),#5460);
#5780=DRAUGHTING_MODEL('',(#5770),#5660);
#5790=CARTESIAN_POINT('',(0.,36.5,0.));
#5800=DIRECTION('',(0.,0.,1.));
#5810=DIRECTION('',(1.,0.,0.));
#5820=AXIS2_PLACEMENT_3D('',#5790,#5800,#5810);
#5830=ITEM_DEFINED_TRANSFORMATION(
'Abschlussplatte-MMS-55_50x50x8_55.0370_PX176320','',#5500,#5820);
#5840=APPLICATION_CONTEXT(' ');
#5850=APPLICATION_PROTOCOL_DEFINITION(' ','automotive_design',1998,#5840
);
#5860=PRODUCT_CONTEXT('',#5840,'mechanical');
#5870=PRODUCT_DEFINITION_CONTEXT('part definition',#5840,'design');
#5880=PRODUCT('Abschlussplatte-MMS-55_50x50x8_55.0370_PX176320',
'Abschlussplatte-MMS-55_50x50x8_55.0370_PX176320','',(#5860));
#5890=PRODUCT_RELATED_PRODUCT_CATEGORY('part',' ',(#5880));
#5900=PRODUCT_DEFINITION_FORMATION_WITH_SPECIFIED_SOURCE('','',#5880,
.BOUGHT.);
#5910=PRODUCT_DEFINITION('',' ',#5900,#5870);
#5920=PRODUCT_DEFINITION_SHAPE('','',#5910);
#5930=DIMENSIONAL_EXPONENTS(1.,0.,0.,0.,0.,0.,0.);
#5940=DIMENSIONAL_EXPONENTS(0.,0.,0.,0.,0.,0.,0.);
#5950=DIMENSIONAL_EXPONENTS(0.,0.,0.,0.,0.,0.,0.);
#5960=(LENGTH_UNIT() NAMED_UNIT(*) SI_UNIT(.MILLI.,.METRE.));
#5970=(NAMED_UNIT(*) PLANE_ANGLE_UNIT() SI_UNIT($,.RADIAN.));
#5980=(NAMED_UNIT(*) SI_UNIT($,.STERADIAN.) SOLID_ANGLE_UNIT());
#5990=(GEOMETRIC_REPRESENTATION_CONTEXT(3) 
GLOBAL_UNCERTAINTY_ASSIGNED_CONTEXT((#6000)) 
GLOBAL_UNIT_ASSIGNED_CONTEXT((#5960,#5970,#5980)) REPRESENTATION_CONTEXT
('',''));
#6000=UNCERTAINTY_MEASURE_WITH_UNIT(LENGTH_MEASURE(1.E-6),#5960,
'distance_accuracy_value','maximum gap value');
#6010=SHAPE_REPRESENTATION('',(#5500,#5820),#5990);
#6020=SHAPE_DEFINITION_REPRESENTATION(#5920,#6010);
#6030=(REPRESENTATION_RELATIONSHIP('','',#5680,#6010) 
REPRESENTATION_RELATIONSHIP_WITH_TRANSFORMATION(#5830) 
SHAPE_REPRESENTATION_RELATIONSHIP());
#6040=NEXT_ASSEMBLY_USAGE_OCCURRENCE('1','',
'Abschlussplatte-MMS-55_50x50x8_55.0370_PX176320',#5910,#5580,'');
#6050=PRODUCT_DEFINITION_SHAPE('','',#6040);
#6060=CONTEXT_DEPENDENT_SHAPE_REPRESENTATION(#6030,#6050);
ENDSEC;
END-ISO-10303-21;
